Cifra Club

Aprenda

Valarie

Reel Big Fish

Tab de bajo: Principal
Intro
G---------------------------------------------------------------------|
D---------------------------------------------------------------------|
A-5555-4444-2222-0000-5555-4444-2222-0000-5555-4444-2222-0000---------|
E-------------------------------------------------------------3~-0235-|

Main Riff
G------------------------|
D------------------------|
A-55-44-22---------------|
E----------55-33-22-0235-|

Verse
G------------------------|
D----------7----54-------|
A-5-5---------33------2--|
E-----5-55--5------333-3-|

Prechorus
G-------------------------------|
D-------------------------------|
A-------------------------------|
E-22-33-5-22-33-5-22-33-5-7-3-5-|

Chorus
G-----------------------------------------------------------------------|
D--------------------------------------------------22-44-77-55-44-22----|
A-55-44-22---------------55-44-22---------------55-------------------44-|
E----------55-33-22-0235----------55-33-22-0235-------------------------|

Guitar Solo
G-------------------------------------------------------------------------|
D-------------------------------------------------------------------------|
A-77-66-44----------------77-66-44-----------------77-66-44---------------|
E----------77-55-44-24577----------77-55-44-245777----------77-55-44-2457-|

Bridge
G-------------------|
D-------------------|
A-5-55-----23-32-24-|
E------5-5------3---|
9 reproducciones

0 comentarios

Mostrar mais comentários

¿Conseguiste tocar?

0 Tocaron 0 Ainda não

Grave um vídeo tocando Valarie e mande pra gente!

00:00 / 00:00
outros vídeos desta música
repetir qualidade Automático
Outros vídeos desta música
00:00 / 00:00
Automático
OK