Cifra Club

Saga

Reginaldo Rossi

Cifrado: Principal (guitarra y guitarra eléctrica)
tono: B
[Intro]  A C#m A B7 (Em B4 E5/B )

E|--------------|
B|-----1--2--1--|
G|--------------|
D|--2--2--2--2--|
A|--2--2--2--2--|
E|--------------|

Parece até mentira

E|--------------|
B|-----1--2--1--|
G|--------------|
D|--2--2--2--2--|
A|--2--2--2--2--|
E|--------------|
                     E
Que acabou o encanto 
                  Am        D
Que você exercia sobre mim

                 G           Em  C
Eu era mesmo, um escravo teu
                B7
Mas eu lutava e pedia a Deus
                   
Pra me livrar da saga

E|--------------|
B|-----1--2--1--|
G|--------------|
D|--2--2--2--2--|
A|--2--2--2--2--|
E|--------------|

Desse amor


E|--------------|
B|-----1--2--1--|
G|--------------|
D|--2--2--2--2--|
A|--2--2--2--2--|
E|--------------|

Eu te adorando tanto

E|--------------|
B|-----1--2--1--|
G|--------------|
D|--2--2--2--2--|
A|--2--2--2--2--|
E|--------------|
 
                   E
Eu te amando tanto
                      Am           D
Eu nem notava que os meus grilhões
                         G            Em  C
Eram cordéis, daqueles, dos fantoches
                           B7
Que em tuas mãos, estava minha sorte
                    Em        B7
A vida, morte e o meu coração

E                           B         C (B) C#m
   Ah! Mas agora, que eu me libertei
                            B     A# A
Que o meu caminho, eu mesmo traço
                      C#m
Quero voltar pro laço
                      A
Voltar pro teu abraço
          B7
Eu sinto falta, da 

E|--------------|
B|-----1--2--1--|
G|--------------|
D|--2--2--2--2--|
A|--2--2--2--2--|
E|--------------|

Tua prisão

E|--------------|
B|-----1--2--1--|
G|--------------|
D|--2--2--2--2--|
A|--2--2--2--2--|
E|--------------|

Eu te adorando tanto

E|--------------|
B|-----1--2--1--|
G|--------------|
D|--2--2--2--2--|
A|--2--2--2--2--|
E|--------------|
                  E
Eu te amando tanto
                      Am           D
Eu nem notava que os meus grilhões
                         G            Em  C
Eram cordéis, daqueles, dos fantoches
                           B7
Que em tuas mãos, estava minha sorte
                    Em        B7
A vida, morte e o meu coração

E                           B         C (B) C#m
   Ah! Mas agora, que eu me libertei
                            B     A# A
Que o meu caminho, eu mesmo traço
                      C#m
Quero voltar pro laço
                      A
Voltar pro teu abraço
          B7
Eu sinto falta, da 

E|--------------|
B|-----1--2--1--|
G|--------------|
D|--2--2--2--2--|
A|--2--2--2--2--|
E|--------------|

Tua prisão

E|--------------|
B|-----1--2--1--|
G|--------------|
D|--2--2--2--2--|
A|--2--2--2--2--|
E|--------------|

Parece até mentira, que acabou o encanto
E parece até mentira, que eu adorava ser o teu escravo
00:00 / 00:00
Otros videos de esta canción
Repetir
Otros videos de esta canción
Compositor no encontrado.
Colaboración y revisión:
  • Andre Oliveira
106 vistas
    • ½ Tono
    • A
    • Bb
    • B
    • C
    • Db
    • D
    • Eb
    • E
    • F
    • F#
    • G
    • Ab
  • Agregar a la lista

    0 comentarios

    Ver todos los comentarios

    ¿Lograste tocar?

    2 Tocaron 0 Aún no

    ¡Graba un video tocando Saga y envíanoslo!

    00:00 / 00:00
    OK