Cifra Club

Você Vai Ver

Reginaldo Rossi

Tablatura: Principal (guitarra)
tono: Ab
(intro) Ab  Eb  Fm  C  Db  Ab  Eb  Ab  Eb7


E|---------------------10--------|--------------7----------
B|-12-12-13-12-10-8-10----10-7-8-|-8-10-8-7---7---7--------
G|-------------------------------|----------9-------8-9----
D|-------------------------------|-------------------------
A|-------------------------------|-------------------------
E|-------------------------------|-------------------------

E|----------------------------|---------------------------------
B|----------------------------|---------------------------------
G|-------------------------12-|---------------11-12-12/14-12----
D|----10-14-12-10-12-11/12----|-10-10-10-9-10-------------------
A|-10-------------------------|---------------------------------
E|----------------------------|---------------------------------

E|-10-10-10-8-7--------------------------------------------
B|--------------10-8-7-8-7-5-------------------------------
G|---------------------------7-5-4-------------------------
D|---------------------------------7-5-4-5-----------------
A|---------------------------------------------------------
E|---------------------------------------------------------

Ab              Eb             Fm     Fm/Eb  Db
Você pode encontrar muitos amores
                   Cm              Bbm   Bbm/Ab  Eb
Mas ninguém vai te dar o que eu te dei
             C7            Fm
Podem até te dar algum prazer
                Db              Ab
Mas posso até jurar você vai ver
                    Eb                Ab   Eb7   Ab
Que ninguém vai te amar como eu te amei
             Eb               Fm    Fm/Eb  Db
Você pode provar milhões de beijos
                   Cm           Bbm Bbm/Ab   Eb
Mas sei que você vai lembrar de mim
                   C7          Fm
Pois sempre que um outro te tocar
             Db            Ab
Na hora você pode se entregar
                    Eb                Ab    Eb7
Mas não vai me esquecer nem mesmo assim

          Ab             Eb        Fm
Eu vou ficar, guardado no seu coração
         Ab7        Db          Ab/C            Eb
Na noite fria solidão, saudade vai chamar meu nome
         Ab               Eb          Fm
Eu vou ficar, num verso triste de paixão
        Ab7          Db           Ab/C         Eb
Em cada sonho de verão, no toque do seu telefone
         Ab      Ab  Eb  Ab7  Db  Ab  Eb  Ab  Eb  Ab
Você vai ver...

             Eb               Fm     Fm/Eb  Db
Você pode provar milhões de beijos
                  Cm            Bbm  Bbm/Ab Eb
Mas sei que você vai lembrar de mim
                   C7          Fm
Pois sempre que um outro te tocar
             Db            Ab
Na hora você pode se entregar
                    Eb                Ab    Eb
Mas não vai me esquecer nem mesmo assim

          Ab             Eb        Fm
Eu vou ficar, guardado no seu coração
         Ab7        Db          Ab/C            Eb
Na noite fria solidão, saudade vai chamar meu nome
         Ab               Eb          Fm
Eu vou ficar, num verso triste de paixão
        Ab7          Db           Ab/C         Eb
Em cada sonho de verão, no toque do seu telefone
         Ab      Ab  Eb  Ab7  Db  Ab  Eb  Ab  Eb  Ab
Você vai ver...
Composição de Carlos Colla/Elias Muniz
Colaboración y revision:
  • João Belleza
74 reproducciones
    • ½ Tono
    • A
    • Bb
    • B
    • C
    • Db
    • D
    • Eb
    • E
    • F
    • F#
    • G
    • Ab
  • Adicionar à lista

    0 comentarios

    Ver todos os comentários

    ¿Conseguiste tocar?

    0 Tocaram 0 Ainda não

    Grave um vídeo tocando Você Vai Ver e nos envie!

    00:00 / 00:00
    outros vídeos desta música
    repetir qualidade Automático
    Outros vídeos desta música
    00:00 / 00:00
    Automático
    OK