Enviar cifraEntrar

Compromisso

Regis Danese

Acordes: Principal
reproducciones 204
Tono: A
(intro)   A F#m D Bm  A F#m D Bm E

 A                         F#m
Eu sei que se eu te obedecer
                    D
e se tua voz eu ouvir
           C#m          Bm
e seus mandamentos guardar
     D
serei... serei
A                        F#m
Bendito por onde eu passar
                          D
as suas bençãos vou receber
            C#m          Bm
o teu favor vai me alcançar
    D
eu sei
          D/9
pois eu confio nas promessas
       C#m
que tu tens p/mim
          F#m
Eu faço compromisso
        Bm              E
de ser fiel a ti até o fim

(refrão 2x)
A                  E/G#
Enche-me com teu espírito
   F#m                E
derrama-me a tua Unção
    D            C#m
Eu vou fazer a tua vontade
   Bm             E
andar na tua direção

   (A  E/G# F#m  D- Bm )
(Eu quero andar contigo Senhor)

               E
Eu sei que serei
A                        F#m
Bendito por onde eu passar
                          D
as suas bençãos vou receber
                     C#m  Bm
o teu favor vai me alcançar
    D
eu sei
          D/9
pois eu confio nas promessas
       C#m
que tu tems pra mim
          F#m
Eu faço compromisso
        Bm             E
de ser fiel a ti até o fim

(refrão 2x)
A                  E/G#
Enche-me com teu espírito
   F#m                E
derrama em mim a tua Unção
    D            C#m
Eu vou fazer a tua vontade
   Bm         E
andar na tua direção

(solo)


E|---------------------------------------------------------
A|---------------------------------------------------------
D|-7/9-9-13-------------------13---------------------------
G|------------13bb-11-13~~-----11-12-14--------------------
B|---------------------------------------------------------
E|---------------------------------------------------------


E|---------------------------------------------------------
A|---------------------------------------------------------
D|---------------------------------------------------------
G|-----------------------13--------------------------------
B|-11H12-11b-12-12b-----12-13-14b--------------------------
E|---------------------------------------------------------


E|------------------------------------------------------------------------
A|---9-11-13--------------------------------------------------------------
D|-------------9-11-13-9-11-13--------------------------------------------
G|-----------------------------------10-11-13----------13---------14------
B|------------------------------------------------11-12-----11-12---------


E|-----------------------------------------
A|-----------------------------------------
D|-----------------------------------------
G|-----------------------------------------
B|-----------------------------------------
E|-11-12-14b~~~~---------------------------


(sobe o tom)

 ( B  G#m  E  F )

(refrão 2x)
B                  F#/A#
Enche-me com teu espírito
   G#m                G#m/F#
derrama em mim a tua Unção
    E7/G#       B/F#
Eu vou fazer  tua vontade
   C#m            F#
andar na tua direção

B                  F#/A#
Enche-me com teu espírito
   G#m                G#m/F#
derrama em mim a tua Unção
    E        B/D#
Eu vou fazer  tua vontade
   C#m            F#
andar na tua direção
  • 1
  • 2
  • 3
  • 4
  • 5
  • 6
  • 7
  • 8
  • 9
  • 10
  • 11
  • 12
    Acordes para:

      0 comentarios

        mostrar mas comentarios

        ¿Conseguiste tocar?

        12tocaron0aún no

        ¡Grave un vídeo tocando Compromisso y envie para nosotros!

        00:00 / 00:00
        outros vídeos desta música
        repetirqualidadeautomática
        • automática
        Outro vídeos desta música
          00:00 / 00:00
          automática
          • automática
          Acordes para:guitarra
          dificuldadreproduccionescontribuciones
          cerrarplay/pause subir/bajar velocidad
            acordes
            cerrar
            OK
            Feedback