Cifra Club

Esperando você voltar

Régis Gimenes

Cifrado: Principal (guitarra y guitarra eléctrica)
tono: Bb (con acordes en la forma de G) Capotraste en 3ª casa

e|-----------------------------------| 
B|-------------7h8p7-----------------|
G|---------7-9-------9-7-9\7---------|
D|-----7-9---------------------------|
A|-7-9-------------------------------|
E|-----------------------------------|

e|-----------------------------------|
B|---------------------7-8-7---7-7~~-|
G|---------5-7-6-7-7\9-------9-------|
D|-----5-7---------------------------|
A|-5-7-------------------------------|
E|-----------------------------------|

e|-----------------------------------|
B|---------5h6p5---------5^----------|
G|-----5-7-------7-5-7-5-------------|
D|-5-7-------------------------------|
A|-----------------------------------|
E|-----------------------------------|

e|-------------------------5---------|
B|-------------------------6---------|
G|-----5-7-5---------5-7-5-5---------|
D|-5-7-------7-5-5-7-----------------|
A|-----------------------------------|
E|-----------------------------------|
Na base usar capotraste na 3ª casa

C                          D
Faz tempo que eu já não te tenho
        Em
Mas eu nunca te esqueci
C                       D
Sempre quando acordo, recordo
Em                 Em7
Todos os momentos juntos de ti

 C                       D
Nos sonhos quando você aparece
         Em
Quero que o tempo pare, para sempre te ver
 C                    D
Mas logo acordo e lembro 
       Em              Em7
Que eu não sou de você

REFRÃO

                C                D
To cansado de viver assim sem você
               Em                                           
Será que vou agüentar mais um minuto sem te ver         
             C                       D
Já tentei esquecer, mas eu não consegui
                Em                Em7
Vou ficar esperando você voltar pra mim
00:00 / 00:00
Otros videos de esta canción
Repetir
Otros videos de esta canción
Compositor no encontrado.
Colaboración y revisión:
  • Régis Gimenes
11 vistas
    • ½ Tono
    • A
    • Bb
    • B
    • C
    • Db
    • D
    • Eb
    • E
    • F
    • F#
    • G
    • Ab
  • Agregar a la lista

    0 comentarios

    Ver todos los comentarios

    ¿Lograste tocar?

    0 Tocaron 0 Aún no

    ¡Graba un video tocando Esperando você voltar y envíanoslo!

    00:00 / 00:00
    OK