Cifra Club

Creo En Tí

Reik

Chords: Principal (acoustic and electric guitars)
tone: F (chord shape for key of E) Capo on fret 1
[Intro] B  F#m  A  E

[Primeira Parte]

B                     F#m
  Ya no importa cada noche que espere
A                   E
  Cada calle o laberinto que cruce
B                            F#m
  Por qué el cielo ha conspirado a mi favor
A                       E
  Y a un segundo de rendirme te encontré

[Pré-Refrão]

  C#m      A      B7(4)      B7
Piel con piel mi corazón se me desarma
 C#m       A      B7(4)       B7    A/C#  B/D#
Me haces bien enciendes luces en mi al___ma

[Refrão]

  E
Creo en ti
     B/D#
Y en este amor
         C#m7                B
Que me vuelve indestructible
       A        B
Que detuvo mi caída libre
  E
Creo en ti
   B/D#
Y mi dolor
            D#°        C#m
Se quedó a kilómetros atras
 C#m7/B  F#/A#
Mis  fantasmas hoy
     A     B      E
Por fin están en paz

[Solo] E  A2  F#7(4)  E  B11/D#
       E  A2  F#7(4)  E  B11/D#

[Tab - Solo]

[Parte 1 De 4]
   E             A2
E|------------------------------------------|
B|------5-----------5------5----------------|
G|---------4---4-------4--------------------|
D|----6------6---7-------7------------------|
A|------------------------------------------|
E|-0----------------------------------------|

Parte 2 De 4
   F#7(4)      E      B11/D#
E|------------------------------------------|
B|----5-------------5------5----------------|
G|-------4---4----4-------------------------|
D|-4-------4---6---------4------------------|
A|--------------------6---------------------|
E|------------------------------------------|

Parte 3 De 4
   E             A2
E|------------------------------------------|
B|------5-----------5------5----------------|
G|---------4---4-------4--------------------|
D|----6------6---7-------7------------------|
A|-7----------------------------------------|
E|-0----------------------------------------|

Parte 4 De 4
   F#7(4)      E      B11/D#
E|------------------------------------------|
B|----5-------------5------5----------------|
G|-------4---4----4-------------------------|
D|-4-------4---6---------4------------------|
A|--------------------6---------------------|
E|------------------------------------------|

[Segunda Parte]

B                       F#m
  El pasado es un mal sueño que acabo
A                          E
  Un incendio que en tus brazos se apago
B                      F#m
  Cuando estaba medio pasó de caer
A                       E
  Mi silencio si encontraron con tu voz

[Pré-Refrão]

 C#m   A    B7(4)        B7
Te seguí y reescribiste mi futuro
C#m   A    B7(4)    B7    A/C#  B/D#
Es aquí mi único lugar segu____ro

[Refrão]

  E
Creo en ti
     B/D#
Y en este amor
         C#m7                B
Que me vuelve indestructible
       A        B
Que detuvo mi caída libre
  E
Creo en ti
   B/D#
Y mi dolor
            D#°        C#m
Se quedó a kilómetros atras
 C#m7/B  F#/A#
Mis  fantasmas hoy
     A     B      E
Por fin están en paz

[Final] E  A2  F#7(4)  E  B11/D#
        E  A2  F#7(4)  E  E/B  E

Tab - Final

[Parte 1 De 4]
   E             A2
E|------------------------------------------|
B|------5-----------5------5----------------|
G|---------4---4-------4--------------------|
D|----6------6---7-------7------------------|
A|------------------------------------------|
E|-0----------------------------------------|

Parte 2 De 4
   F#7(4)      E      B11/D#
E|------------------------------------------|
B|----5-------------5------5----------------|
G|-------4---4----4-------------------------|
D|-4-------4---6---------4------------------|
A|--------------------6---------------------|
E|------------------------------------------|

Parte 3 De 4
   E             A2
E|------------------------------------------|
B|------5-----------5------5----------------|
G|---------4---4-------4--------------------|
D|----6------6---7-------7------------------|
A|-7----------------------------------------|
E|-0----------------------------------------|

Parte 4 De 4
   F#7(4)      E      E/B    E
E|------------------------------------------|
B|----5-------------5------5-0--------------|
G|-------4---4----4----------7--------------|
D|-4-------4---6---------4---6--------------|
A|---------------------------7--------------|
E|--------------------7------0--------------|
00:00 / 00:00
Other videos of this song
Repeat
Other videos of this song
Composed by Gilberto Martin / Julio Ramirez / Kiko Cibrian / Monica Velez
45.865 views
    • ½ Tone
    • A
    • Bb
    • B
    • C
    • Db
    • D
    • Eb
    • E
    • F
    • F#
    • G
    • Ab
  • Add to list
    00:00 / 00:00
    OK