Cifra Club

Sabes

Reik

Cifrado: Principal (guitarra y guitarra eléctrica)
tono: Eb (con acordes en la forma de D) Capotraste en 1ª casa
[Intro]

E|-----------------------------------0---------------------|
B|--------2--0-/--------------------------3---2------0-----|
G|----------------------2---0-------2-------------------2--|
D|------4-----------0------------0--------------2----------|
A|---2-----------------------------------------------------|
E|---------------3-----------------------------------------|

E|---------------------------------------------------------|
B|--------2--0-/---------------------0---------------------|
G|----------------------2---0-----------0---2--------------|
D|------4-----------0--------------2-----------------------|
A|---2------------------------0----------------------------|
E|---------------3-----------------------------------------|

 D                   G
Sabes, no pido nada mas
                      D
Que estar entre tus brazos
                   G
Y huir de todo el mal
          D          Em
Que a todo he renunciado
 D              A
Por estar junto a ti

[Pré-Refrão]

 D                 G
Sabes te quiero confesar
                D
Que estoy enamorado
            G
no dejo de pensar
         D         Em
Que soy solo un esclavo
 D      A
Que no sabe vivir, sin ti

[Refrão]

 Bm     G        D
Cuando llegaste tu
      A           Bm
Te metiste en mi ser
      G        D
Encendiste la luz
       A
Me llenaste de fe
 Em         D     G
Tanto tiempo busque
                  D    Em
Pero al fin te encontre
        D          A
Tan perfecta como te imagine  

 Bm    G             D
Como aguja en un pajar
       A         Bm
Te busque sin cesar
 Bm   G            D
Como huella en el mar
     A
Tan dificil de hallar
 Em         D     G
Tanto tiempo busque
 G             D      Em
Pero al fin te encontre
        D    A
Tan perfecta,   como te imagine

[Segunda Parte]

 D                    G
Sabes te quiero confesar
                          D
Que te encuentro irressistible
 D          G
No dejo de pensar
        D         Em   D
Que haria lo imposible
        A
Por quedarme cerca de ti

[Refrão]

 Bm     G        D
Cuando llegaste tu
      A           Bm
Te metiste en mi ser
      G        D
Encendiste la luz
       A
Me llenaste de fe
 Em         D     G
Tanto tiempo busque
                  D    Em
Pero al fin te encontre
        D          A
Tan perfecta como te imagine  

 Bm    G             D
Como aguja en un pajar
       A         Bm
Te busque sin cesar
 Bm   G            D
Como huella en el mar
     A
Tan dificil de hallar
 Em         D     G
Tanto tiempo busque
 G             D      Em
Pero al fin te encontre
        D    A
Tan perfecta,   como te imagine

E|----------------1------------------------------------|
B|-0-----------------3-----------3---------------------|
G|----2--------------------3-------5-------------------|
D|----------2-----------0---------------5---------4----|
A|-------0--------------------------3------------------|
E|-----------------------------------------------------|

[Final]

   D                 G
Sabes, no pido nada mas
                   D
Que estar entre tus braaazos
00:00 / 00:00
Otros videos de esta canción
Repetir
Otros videos de esta canción
Composición de Kiko Cibrian / Manuel Ruiz
37.539 vistas
    • ½ Tono
    • A
    • Bb
    • B
    • C
    • Db
    • D
    • Eb
    • E
    • F
    • F#
    • G
    • Ab
  • Agregar a la lista

    0 comentarios

    Ver todos los comentarios

    ¿Lograste tocar?

    18 Tocaron 0 Aún no

    ¡Graba un video tocando Sabes y envíanoslo!

    00:00 / 00:00
    OK