Cifra Club

Maybe Its Maybeline

Relient K

Cifrado: Principal (guitarra y guitarra eléctrica)
Selo Cifra Club: esta cifra foi revisada para atender aos critérios oficiais da nossa Equipe de Qualidade.
tono: Bm
E|E|-----------------------------------------------------------------------||
Maybe It's Maybeline- Relient K
E|E|-----------------------------------------------------------------------||
Tabbed by: Daniel T or cgplaya
never check anyways btw..im from harker so that should turn off about ¾ of the girls.

Tuning: Standard (EADGBe for all of the newbs...lol) 

Intro:
E|---------5---------------5---------9-10-7---9-10-3--2--0-0----------|
B|-7-5-7-----8-7-5-7-5-7-----8-7--------------------------------------|
G|-------7---------------7--------------------------------------------|
D|--------------------------------------------------------------------|
A|--------------------------------------------------------------------|
E|--------------------------------------------------------------------|

E|---------5---------------5---------9-10-7---9-10-15--14---12-12-----|
B|-7-5-7-----8-7-5-7-5-7-----8-7--------------------------------------|
G|-------7---------------7--------------------------------------------|
D|--------------------------------------------------------------------|
A|--------------------------------------------------------------------|
E|--------------------------------------------------------------------|

Verse: (No Guitar But I Tabbed It Anyways)
E|-------------------------|
B|-------------------------|
G|-7-----------------7-----|
D|-7-x8--9-----5-----7-x8--|
A|-5-----9-x8--5-x8--5-----|
E|-------7-----3-----------|

Pre-Chorus:
E|----------------------------------------------|
B|----------------------------------------------|
G|--4-----6-----7-----9-----11----12-11-9-9-11--|
D|--x-x4--x-x4--x-x4--x-x4--x-x8--x--x--x-x-x---|
A|--2-----4-----5-----7-----9-----10-9--7-7-9---|
E|----------------------------------------------|

Chorus:
E|------------------------------------------|
B|------------------------------------------|
G|-7----------------------------------------|
D|-7-x16--7------5--------------5-----7-----|
A|-5------7-x16--5-x8--*pa| use*--5-x8--7-x8--|
E|--------5------3--------------3-----5-----|

Interlude/Ending/Outro: (Really listen to song carefully for timing)
E|-----------------------------------------------|
B|-----------------------------------------------|
G|------------6h7-----------6h7---7---6---7---6--|
D|--7-7-7-7-9-----7-7-7-7-9-----9---7---7---7----|
A|-----------------------------------------------|
E|-----------------------------------------------|

Riff with Last Chorus:
E|-----------------------------|
B|-----------------------------|
G|--3-----4-----5-----6-----7--|
D|--x-x4--x-x4--x-x4--x-x4--7--|
A|--1-----2-----3-----4-----5--|
E|-----------------------------|
Otros videos de esta canción
    12 exhibiciones
      • ½ Tono
      • Am
      • Bbm
      • Bm
      • Cm
      • C#m
      • Dm
      • Ebm
      • Em
      • Fm
      • F#m
      • Gm
      • G#m
    • Agregar a la lista

    Afinación de cifrado

    Afinador online

      OK