Cifra Club

Losing My Religion

R.E.M.

Tab de bajo: Versão 3
tabbed by: Mark Anthony Gruspe
email: *
       *

standard tuning: EADG

intro:

G|-----------------------------------------------------------------|
D|-----------------------------------------------------------------|
A|---5-7-5-0---------5-7-5-0-------------5-7-5-0-------------------|
E|-----------5-555-55-------5-57-9-10-12--------5-555-55-55-3--333-|

verse:

G|--------------------------------------------------------------|
D|--------------------------------------------------------------|
A|---------77-77777--------77-77777------77-77777-5-5555--------|
E|--5-5555---------5-55-555--------5-5555---------------33333---|

chorus:
G|--------------------------------------------------------------|
D|--------------------------------------------------------------|
A|-5750-------77-77777--------77-77777------77-77777-5-5555-----|
E|-----5-5555--------5-55-555--------5-5555---------------33333-|

bridge:

    G
G|----------------------------------------------|
D|----------------------------------------------|
A|--8-888-8888---------------8-888-8888---------|
E|-------------5-5-57-9-10-12----------5-55-555-|


*verse 2x*
*bridge*

adlib:

G|----------------------------------------------|
D|----------------------------------------------|
A|----------------------------------------5750--|
E|--8------5-----3------0-------/8\5-/8\0-------|

outro:
     s
G|--------------------------|
D|--------------------------|
A|--------------------------|
E|-0-1/3----0-1/3----0-1/3--|



*please dont copy and post this tab as yours. have some respect*
if u have comments or suggestions just email me *

*wag nio pong kopyahin tpos i-post it0ng tab n i2 n kunwari kyo ang gumawa*
if u have comments or suggestions just email me *

add me on friendster- * =p
*kramchel*
Composición de Bill Berry / Michael Stipe / Mike Mills / Peter Buck
49 vistas

0 comentarios

Ver todos los comentarios

¿Lograste tocar?

0 Tocaron 0 Aún no

¡Graba un video tocando Losing My Religion y envíanoslo!

00:00 / 00:00
Outros vídeos desta música
Repetir Calidad Automático
Outros vídeos desta música
00:00 / 00:00
Automático
OK