Cifra Club

Superman

R.E.M.

Cifrado: Principal (guitarra y guitarra eléctrica)
Selo Cifra Club: esta cifra foi revisada para atender aos critérios oficiais da nossa Equipe de Qualidade.
tono: A
E   E7  E   E7
E   E7  E   E7


[Chorus]
 E         Asus2                           E        E7    E     E7
I am I am I am Superman and I know what's happening
 E         Asus2                       E      E7    E     E7
I am I am I am Superman and I can do anything


[Verse]
 E                 A                                 E
You don't really love that guy you make it with now do you
 E                 A                                   E
I know you don't love that guy cause I can see right through you


[Chorus]
E         Asus2                           E        E7    E     E7
I am I am I am Superman and I know what's happening
 E         Asus2                       E      E7    E     E7
I am I am I am Superman and I can do anything


[Verse]
E            A                                 E
If you go a million miles away I'll track you down girl
E                A                                E
Trust me when I say I know the pathway to your heart


[Break]
   D           A             E
E|-------------------------|-------------------------| |-------------------------|
B|-7-7---7-----------------|-------------------------| |-7-7---7-----------------|
G|-7-7---7-----6-6---6-----|-------------------------| x3, |-7-7---7-----6-6---6-----|
D|-7-7---7-----7-7---7-----|-------------------------| |-7-7---7-----7-7---7-----|
A|-5-5---5-----7-7---7-----|-------------------------| |-5-5---5-----7-7---7-----|
E|-------------5-5---5-----|-0--0--3--4--0--0--3--4--| |-------------5-5---5-----|


[Verse]
E            A                                 E
If you go a million miles away I'll track you down girl
E                A                                E
Trust me when I say I know the pathway to your heart


[Chorus]
E         Asus2                           E           E7
I am I am I am Superman and I know what's happening
 E         Asus2                       E         E7
I am I am I am Superman and I can do anything

E         Asus2                           E           E7
I am I am I am Superman and I know what's happening
 E         Asus2                       E
I am I am I am Superman and I can do anything


[Outro]
   D           A             E (hold)
E|-------------------------|-0-----------------------|
B|-7-7---7-----------------|-0-----------------------|
G|-7-7---7-----6-6---6-----|-1-----------------------|
D|-7-7---7-----7-7---7-----|-2-----------------------|
A|-5-5---5-----7-7---7-----|-2-----------------------|
E|-------------5-5---5-----|-0-----------------------|
Otros videos de esta canción
    43 exhibiciones
      • ½ Tono
      • A
      • Bb
      • B
      • C
      • Db
      • D
      • Eb
      • E
      • F
      • F#
      • G
      • Ab
    • Agregar a la lista

    Afinación de cifrado

    Afinador online

      OK