Cifra Club

The one I Love

R.E.M.

Cifrado: Principal (guitarra y guitarra eléctrica)
tono: G
Intro riff:

E|-------------------0---0-------0----0--0-----
B|--------------------3s5-0--------3---0--0----
G|-----------------------------------0--0--0---
D|---------------0-----------------------------
A|------------0-----------------2--------------
E|-0--0--2s3-----------------0-----------------

 Em                Dsus2        Em     Em7
This one goes out to the one I love
 Em                Dsus2            Em     Em7
This one goes out to the one I've left behind
 Gsus4     D     Am7       C
A simple prop to occupy my time
 Em                Dsus2        Em    Em7
This one goes out to the one I love
{riff}
Fire
Fire

 Em                Dsus2        Em     Em7
This one goes out to the one I love
 Em                Dsus2            Em     Em7
This one goes out to the one I've left behind
 Gsus4     D     Am7       C
A simple prop to occupy my time
 Em                Dsus2        Em    Em7
This one goes out to the one I love

{riff}
Fire   (she's comin' down on her own, now)
Fire   (she's comin' down on her own, now)

Guitar solo:
E|--------------------------------------------------------------------------
B|------3-----5--3--------3-----5--3--------3-----5--3--3h5--3--0-----------
G|-2s4-----4---------2s4-----4---------2s4-----4-------------------2--0-----
D|--------------------------------------------------------------------------
A|--------------------------------------------------------------------------
E|--------------------------------------------------------------------------

E|--------------------------------------------------------------------------
B|-----------------------3--------------------------------------------------
G|---------0--0--2--2s4-----4--2--0-----------------------------------------
D|-0--0h2----------------------------0--0h2--4--2-------2-------------------
A|--------------------------------------------------------------------------
E|-------------------------------------------------3~~-----------0----------

 Em                Dsus2        Em     Em7
This one goes out to the one I love
 Em                Dsus2            Em     Em7
This one goes out to the one I've left behind
 Gsus4     D     Am7       C
Another prop has occupied my time
 Em                Dsus2        Em    Em7
This one goes out to the one I love

{riff}
Fire   (she's comin' down on her own, now)
Fire   (she's comin' down on her own, now)
Fire   (she's comin' down on her own, now)
Fire   (she's comin' down on her own, now)

End:
E|------------------------0--
B|------------3-----0-----0--
G|------------2-----0-----0--
D|------------0-----1-----2--
A|---------0--------------2--
E|-0--2s3-----------------0--
00:00 / 00:00
Otros videos de esta canción
Repetir
Otros videos de esta canción
Composición de Bill Berry / Michael Stipe / Mike Mills / Peter Buck
Colaboración y revisión:
  • Carlos Peterle
9.781 exhibiciones
    • ½ Tono
    • A
    • Bb
    • B
    • C
    • Db
    • D
    • Eb
    • E
    • F
    • F#
    • G
    • Ab
  • Agregar a la lista
    00:00 / 00:00
    OK