Cifra Club

I'll Be There For You

The Rembrandts

Cifrado: Principal (guitarra y guitarra eléctrica)
tono: A
[Intro]

A

[TAB - Intro] - 4x

  A
E|------------------------------------------|
B|------------------------------------------|
G|-2--4/6--6\4-2-0-0--2-2h4--2--------------|
D|-2----------------------------------------|
A|-0----------------------------------------|
E|------------------------------------------|
   ↓

[Primeira Parte]

A        
  So no one told you life was 
               G
Gonna be this way
A
  Your job's a joke, you're broke 
                     C#m
Your love life's D.O.A.

[Pré-Refrão]

G                  Bm
  It's like you're always stuck in 
 A
Second gear
         G                D/F#
When it hasn't been your day
                 E
Your week, your month

Or even your year, but

[Refrão]

A           D        E
  I'll be there for you 
                          A
(When the rain starts to pour)
          D        E
I'll be there for you 
                         A
(Like I've been there before)
          D        E
I'll be there for you 
                             G (Frase)
('Cause you're there for me too)

[TAB - Frase]

   G
E|------------------------------------------|
B|-0----------------------------------------|
G|-0---4-4-2-0--4/5--4-2--4-2---------------|
D|-0---0-0-0-0--0----0-0--0-0---------------|
A|-2----------------------------------------|
E|-3----------------------------------------|
   ↓

[Segunda Parte]

A
  You're still in bed at ten
                   G
And work began at eight
A                
  You burned your breakfast so far
                   C#m
Things are going great

[Pré-Refrão]

G              Bm
  Your mother warned you 
            A              (Arranjo)
There'd be days like these
         G                D/F#
But she didn't tell you when 
                E
The world has brought

You down to your knees that

[TAB - Arranjo]
   A
E|------------------------------------------|
B|-2--2-2-----------------------------------|
G|-2--2-2------------2------2---------------|
D|-2--2-2----------2------2------2----------|
A|-0--0-0----0-2-4------2------0------------|
E|------------------------------------------|
   ↓  ↑ ↑


[Refrão]

A           D        E
  I'll be there for you 
                          A
(When the rain starts to pour)
          D        E
I'll be there for you 
                         A
(Like I've been there before)
          D        E
I'll be there for you 
                             G (Frase) A
('Cause you're there for me too)

[TAB - Frase]
   G
E|------------------------------------------|
B|-0----------------------------------------|
G|-0---4-4-2-0--4/5--4-2--4-2---------------|
D|-0---0-0-0-0--0----0-0--0-0---------------|
A|-2----------------------------------------|
E|-3----------------------------------------|
   ↓

[Terceira Parte]

D
  No one could ever know me

No one could ever see me
F#m
    Seems you're the only one who knows 

What it's like to be me

Bm 
   Someone to face the day with
Bm/A
     Make it through all the mess with
G           D/F#
  Someone I always laugh with
E             D/F#
  Even at my worst 
     E/G#      F#m  D     E
I'm best with yo_____u, yeah

A  D  E  F#m  D  E  A  D  E

[TAB - Solo]

[Parte 1 De 5]
E|-----------------------------------------------------|
B|-----------------------------------------------------|
G|-6-6-6-6-6-6-6-----2-4/6--4-4----4-2-4---------------|
D|---------------4-4-----------------------------------|
A|-----------------------------------------------------|
E|-----------------------------------------------------|

Parte 2 de 5
E|-----------------0--------0-----0-----0--------------|
B|-------------------0--------0-----0-----0------------|
G|--4/6-----4/6--4-----4--2-----1----------------6-----|
D|------2-4---------------------------2----------------|
A|------------------------------------------2----4-----|
E|-----------------------------------------------------|

Parte 3 de 5
E|-----------------------------------------------------|
B|----------------------------------10-10-10-8-8-------|
G|-6-6-6-6-6-6-6-----------4/6-4-4---------------------|
D|----------------4-4--7------------7--7--7--6-6-------|
A|-4-4-4-4-4-4-4-----------2/4-2-2---------------------|
E|----------------2-2--5-------------------------------|

Parte 4 de 5
E|-----------------------------------------------------|
B|-10/12----10-----------------------------------------|
G|--------9----7---------------------------------------|
D|-7-/9-----------4--7---------------------------------|
A|-----------------------------------------------------|
E|-----------------------------------------------------|

Parte 5 de 5
E|--------0-----0-----0-----0--------------------------|
B|----------0-----0-----0-----0----10-12---------------|
G|------4-----6-----7-----9-----11---------------------|
D|-----------------------------------------------------|
A|-----------------------------------------------------|
E|-----------------------------------------------------|

[Pré-Refrão]

G                  Bm
  It's like you're always stuck in 
 A
Second gear
         G                D/F#
When it hasn't been your day
                 E
Your week, your month

Or even your year

[Refrão Final]

A           D        E
  I'll be there for you 
                          A
(When the rain starts to pour)
          D        E
I'll be there for you 
                         A
(Like I've been there before)
          D        E
I'll be there for you 
                             G
('Cause you're there for me too)
A           D        E
  I'll be there for you 
A           D        E
  I'll be there for you 
A           D        E
  I'll be there for you 
                            G (Frase)  A
'Cause you're there for me too

[TAB - Frase]
   G
E|------------------------------------------|
B|-0----------------------------------------|
G|-0---4-4-2-0--4/5--4-2--4-2---------------|
D|-0---0-0-0-0--0----0-0--0-0---------------|
A|-2----------------------------------------|
E|-3----------------------------------------|
   ↓
00:00 / 00:00
Otros videos de esta canción
Repetir
Otros videos de esta canción
Composición de Allee Willis / Danny Wilde / David Crane / Marta Kauffman / Michael Skloff / Phil Solem
Colaboración y revisión:
  • Caico Antunes
2.662 exhibiciones
  • Simplificar cifrado
    • ½ Tono
    • A
    • Bb
    • B
    • C
    • Db
    • D
    • Eb
    • E
    • F
    • F#
    • G
    • Ab
  • Agregar a la lista
    00:00 / 00:00
    Capítulos
    • Tocando a Música
    • Apresentação / Equipamentos
    • Acodes de Intro
    • Tocando Intro
    • Ensinando Intro
    • Acordes da Primeira Parte
    • Ensinando Ritmo da Primeira Parte
    • Acordes do Pré-Refrão
    • Ensinando Ritmo do Pré-Refrão
    • Acordes do Refrão
    • Tocando Refrão
    • Ensinando Ritmo do Refrão
    • Tocando Pré-Refrão
    • Ensinando Pré-Refrão
    • Acordes da Terceira Parte
    • Tocando Terceira Parte / Solo
    • Ensinando Ritmo da Terceira Parte
    • Tocando Solo
    • Ensinando Solo
    • Encerramento
    OK