Cifra Club

1000 Graus

Renascer Praise

Cifrado: Principal (guitarra y guitarra eléctrica)
tono: C
[Intro] F  C  Em  Am
        F  C  G
        F  C  Em  Am
        F  C  G
        F  C  Em  Am
        F  C  G  C

[Tab - Intro]

Parte 1 de 6

         F     C          Em    Am
E|------------------------------------------|
B|------------------------12----13----------|
G|----12-14-12---------12----14-------------|
D|-14----------14---14----------------------|
A|------------------------------------------|
E|------------------------------------------|

Parte 2 de 6

         F      C         G
E|------------------------------------------|
B|-13-12------------------------------------|
G|-------14--12-----------------------------|
D|--------------14--15-14-12----------------|
A|------------------------------------------|
E|------------------------------------------|

Parte 3 de 6

         F     C          Em    Am
E|------------------------------------------|
B|------------------------12----13----------|
G|----12-14-12---------12----14-------------|
D|-14----------14---14----------------------|
A|------------------------------------------|
E|------------------------------------------|

Parte 4 de 6

         F      C         G
E|------------------------------------------|
B|-13-12------------------------------------|
G|-------14--12-----------------------------|
D|--------------14--15-14-12----------------|
A|------------------------------------------|
E|------------------------------------------|

Parte 5 de 6

         F     C          Em    Am
E|------------------------------------------|
B|------------------------12----13----------|
G|----12-14-12---------12----14-------------|
D|-14----------14---14----------------------|
A|------------------------------------------|
E|------------------------------------------|

Parte 6 de 6

         F      C         G     C
E|------------------------------0-----------|
B|-13-12------------------------1-----------|
G|-------14--12-----------------0-----------|
D|--------------14--15-14-12----2-----------|
A|------------------------------3-----------|
E|------------------------------------------|

[Primeira Parte]

Na presença dos homens

Na presença dos anjos
              F  Em  Am
Sempre eu Te louva__rei
    Dm  Em  F
Te lou_va__rei
C
  Mesmo estando em guerra

Vou celebrando minha vitória
       F  Em  Am
Eu te louva__rei
    Dm  Em  F
Te lou_va__rei

       G    C
Sobre toda terra
      F     G    C
Novo som se ouvirá
    G    C
Tua alegria
        F     G  C
Força pra continuar
         G   C
Deus de maravilhas
     A7  Dm7
Que maravilha
       Bb         Dm
Te louvar, Te louvar
       E  Am
Te louvar

[Pré-Refrão]

          Dm7       Am7
Eu entro na Tua presença
         Em7         Am7
Pra receber o Teu poder
          Dm7          Am7
E quanto mais o tempo passa
            Em7  Am7
Mais quero Deus
        Dm7           Am7
O fogo cai, a igreja canta
      Em7          Am7
O inimigo vai ao chão
         Dm7         Am7
Fogo e glória nas cabeças
                Em7  Am7
Mil graus de unção
                Em7  Am7
Mil graus de unção!

[Refrão]

          F           C
O som da festa vai subir
      Em         Am
Sua glória descerá
        F          C
Se ouvirá um novo som
       G
De aleluia
          F           C
O som da festa vai subir
      Em         Am
Sua glória descerá
        F          C
Se ouvirá um novo som
       G          C
De aleluia, aleluia

[Primeira Parte]

Na presença dos homens

Na presença dos anjos
              F  Em  Am
Sempre eu Te louva__rei
    Dm  Em  F
Te lou_va__rei
C
  Mesmo estando em guerra

Vou celebrando minha vitória
       F  Em  Am
Eu te louva__rei
    Dm  Em  F
Te lou_va__rei

       G    C
Sobre toda terra
      F     G    C
Novo som se ouvirá
    G    C
Tua alegria
        F     G  C
Força pra continuar
         G   C
Deus de maravilhas
     A7  Dm7
Que maravilha
       Bb         Dm
Te louvar, Te louvar
       E  Am
Te louvar

[Pré-Refrão]

          Dm7       Am7
Eu entro na Tua presença
         Em7         Am7
Pra receber o Teu poder
          Dm7          Am7
E quanto mais o tempo passa
            Em7  Am7
Mais quero Deus
        Dm7           Am7
O fogo cai, a igreja canta
      Em7          Am7
O inimigo vai ao chão
         Dm7         Am7
Fogo e glória nas cabeças
                Em7  Am7
Mil graus de unção
                Em7  Am7
Mil graus de unção!

[Refrão]

          F           C
O som da festa vai subir
      Em         Am
Sua glória descerá
        F          C
Se ouvirá um novo som
       G
De aleluia
          F           C
O som da festa vai subir
      Em         Am
Sua glória descerá
        F          C
Se ouvirá um novo som
       G
De aleluia

          F           C
O som da festa vai subir
      Em         Am
Sua glória descerá
        F          C
Se ouvirá um novo som
       G
De aleluia
          F           C
O som da festa vai subir
      Em         Am
Sua glória descerá
        F          C
Se ouvirá um novo som
       G
De aleluia

          F           C
O som da festa vai subir
      Em         Am
Sua glória descerá
        F          C
Se ouvirá um novo som
       G
De aleluia
          F           C
O som da festa vai subir
      Em         Am
Sua glória descerá
        F          C
Se ouvirá um novo som
       G          C
De aleluia, aleluia
00:00 / 00:00
Otros videos de esta canción
Repetir
Otros videos de esta canción
Composición de CLOVIS ENCARNACAO DE PINHO
17.014 vistas
    • ½ Tono
    • A
    • Bb
    • B
    • C
    • Db
    • D
    • Eb
    • E
    • F
    • F#
    • G
    • Ab
  • Agregar a la lista

    0 comentarios

    Ver todos los comentarios
    00:00 / 00:00
    OK