Cifra Club

Renovo

Renascer Praise

Cifrado: Principal (guitarra y guitarra eléctrica)
tono: F#
 Tom: F#
[Intro] F#  D#m  C#  B  F# 

e)---------------------------------|
B)--7-7--9-9--11-11----------------|
G)------------------------11-11----|
D)---------------------------------|
A)---------------------------------|
E)---------------------------------|

e) ---------------------------------|
B) --7-7--9-9--11-11----------------|
G) ------------------------11-10----|
D) ---------------------------------|
A) ---------------------------------|
E) ---------------------------------|

e)----------------------------------------------------|
B)--7-7--9-9--11-11/14--12-12-11-11--9-9--7-7-----7---|
G)---------------------------------------------6------|
D)----------------------------------------------------|
A)----------------------------------------------------|
E)----------------------------------------------------|

e)---------------------------------|
B)--7-7--9-9--11-11----------------|
G)------------------------11-11----|
D)---------------------------------|
A)---------------------------------|
E)---------------------------------|

e) --------------------------------|
B)--7-7--9-9--11-11/12--11---------|
G)---------------------------------|
D)---------------------------------|
A)---------------------------------|
E)---------------------------------|

e)---------------------------------|
B)--11(16x)------------------------|
G)---------------------------------|
D)---------------------------------|
A)---------------------------------|
E)---------------------------------|


F#
Com tuas mãos vem Senhor me tocar
B                          D#m  C#
A tua unção sobre nós derramar
                 B
Chamamos tua presença

F#
Quero sentir o sopro do teu poder
B                                  D#m  C#
Vento de Deus me invade e faz renascer
               B
Derrama teu renovo

C#          B   C#           B
Eu sou teu vaso molda-me Senhor
C#         B   C#                B
Me faz de novo pra tua glória mostrar

F#
Vem derramar teu fogo, teu fogo
D#m
Vem derramar tua glória, tua glória
C#                  B
Derrama a tua unção derrama o teu poder
F#
Teu fogo, teu fogo

F#
Vem invadir tua igreja agora
D#m
Vem batizar com fogo, teu povo
C#                  B
Quero voar na unção quero me encher da unção
F#          D#m  C#       B
Teu fogo, teu fogo, teu fogo

C#          B   C#           B
Eu sou teu vaso molda-me Senhor
C#         B   C#                B
Me faz de novo pra tua glória mostrar

F#
Vem derramar renovo, teu fogo
D#m
Vem derramar tua glória, tua glória
C#                 B
Renova a tua unção renova o teu poder
F#
Teu fogo, teu fogo

F#
Vem invadir tua igreja agora
D#m
Vem batizar com fogo, teu povo
C#                  B
Quero voar na unção quero me encher da unção
F#
Teu fogo, teu fogo

F#
Vem derramar renovo, teu fogo
D#m
Vem derramar tua glória, tua glória
C#                 B
Renova a tua unção renova o teu poder
F#
Teu fogo, teu fogo

F#
Vem invadir tua igreja agora
D#m
Vem batizar com fogo, teu fogo
C#                  B
Quero voar na unção quero me encher da unção
F#          D#m   C#
Teu fogo, teu fogo
D#m           B
Renova-me, Senhor
D#m      C#
Teu fogo teu fogo
F#/A#          B
Renova-me, Senhor

[Final] F#  C#  B  F#
Composición de Estavam Hernandes / Léo Marx / Ronaldo Gomes / Vânia Marx
Colaboración y revisión:
  • Jonathan Rodrigues
  • Jefferson viana
172 vistas
    • ½ Tono
    • A
    • Bb
    • B
    • C
    • Db
    • D
    • Eb
    • E
    • F
    • F#
    • G
    • Ab
  • Agregar a la lista

    0 comentarios

    Ver todos los comentarios
    00:00 / 00:00
    Outros vídeos desta música
    Repetir Calidad Automático
    Outros vídeos desta música
    00:00 / 00:00
    Automático
    OK