Cifra Club

Restaura

Renascer Praise

Cifrado: Principal (guitarra y guitarra eléctrica)
tono: F
[Intro] F C/E Dm7 Bb9

E|-------------------------------------|
B|------18--17-------------18--17------|
G|--17-----------17--14------------17--|
D|-------------------------------------|
A|-------------------------------------|
E|-------------------------------------|

E|-------------------------------------|
B|--18--17-----------------------------|
G|----------17--17h19~~----------------|
D|-------------------------------------|
A|-------------------------------------|
E|-------------------------------------|

F     Bb9
Pai, segura a minha mão
        F         Bb9
Tô precisando conforta o meu coração
           F         Bbm
Que tá sangrando não me deixe cair

F    Bb9
Pai, me ensina o caminho
       F             Bb9                  Dm7
E como vou seguir me livra desses medos renova-me
      Bb9                 C9              F
Me faz nascer de novo não me deixe cair não

                        C9
Senhor restaura a minha vida
             Gm7
Meu ser, meus sonhos
      Bb9
Quero te abraçar
F                       C9            Gm7
Senhor eu sei que sem o seu amor nada sou
          Bb9
Tua graça me guiará
        F
Onde eu for

( Dm7  C/E  Gm7  C9 )

                        C9
Senhor restaura a minha vida
             Gm7
Meu ser, meus sonhos
      Bb9
Quero te abraçar
F                       C9            Gm7
Senhor eu sei que sem o seu amor nada sou
          Bb9
Tua graça me guiará
         F
Onde eu for
Composición de João Victor
Colaboración y revisión:
  • Jonathan Rodrigues
  • João Silva
3 vistas
    • ½ Tono
    • A
    • Bb
    • B
    • C
    • Db
    • D
    • Eb
    • E
    • F
    • F#
    • G
    • Ab
  • Agregar a la lista

    0 comentarios

    Ver todos los comentarios
    00:00 / 00:00
    Outros vídeos desta música
    Repetir Calidad Automático
    Outros vídeos desta música
    00:00 / 00:00
    Automático
    OK