Cifra Club

Your Eyes

Rent

Cifrado: Principal (guitarra y guitarra eléctrica)
tono: C
Intro
    F/A               G/B               F/A               Asus2
e|----1-----1-------|---3-----3-------|---1-----1-------|-0--|
B|------1-----1---1-|-----3-----3---3-|-----1-----1---1-|-0--|
G|--------2-----2---|-------0-----0---|-------2-----2---|-2--|
D|------------------|-----------------|-----------------|-2--|
A|--0---------------|-2---------------|-0---------------|-0--|
E|------------------|-----------------|-----------------|----|

Verse
    F/A               G/B               C                 C/B
e|----1-----1-------|---3-----3-------|---------0-------|---------0--------|
B|------1-----1---1-|-----3-----3---3-|---1-------1---1-|---1-------1---1--|
G|--------2-----2---|-------0-----0---|-----0-------0---|-----0-------0----|
D|------------------|-----------------|-------2---------|-------2----------|
A|--0---------------|-2---------------|-3---------------|-2----------------|
E|------------------|-----------------|-----------------|------------------|

    Am                G                 Em                G
e|----------0-------|---------3-------|---------0-------|---------3--------|
B|----1-------1---1-|---0-------0---0-|---0-------0---0-|---0-------0---0--|
G|------0-------0---|-----0-------0---|-----0-------0---|-----0-------0----|
D|--------2---------|-------0---------|-------2---------|-------0----------|
A|--0---------------|-----------------|-----------------|------------------|
E|------------------|-3---------------|-0---------------|-3----------------|

    F/A               G/B               C                 C/B
e|----1-----1-------|---3-----3-------|---------0-------|---------0--------|
B|------1-----1---1-|-----3-----3---3-|---1-------1---1-|---1-------1---1--|
G|--------2-----2---|-------0-----0---|-----0-------0---|-----0-------0----|
D|------------------|-----------------|-------2---------|-------2----------|
A|--0---------------|-2---------------|-3---------------|-2----------------|
E|------------------|-----------------|-----------------|------------------|

    Am                G                 C
e|----------0-------|---------3-------|---------0-------|---------0--------|
B|----1-------1---1-|---0-------0---0-|---1-------1---1-|---1-------1---1--|
G|------0-------0---|-----0-------0---|-----0-------0---|-----0-------0----|
D|--------2---------|-------0---------|-------2---------|-------2----------|
A|--0---------------|-----------------|-3---------------|-3----------------|
E|------------------|-3---------------|-----------------|------------------|

Bridge

    Bbsus4                              Csus4
e|----------1-------|---------1-------|---------3-------|---------3--------|
B|----1-------1---3-|---1-------1---3-|---3-------3---3-|---3-------3---3--|
G|------3-------3---|-----3-------3---|-----5-------5---|-----5-------5----|
D|--------3---------|-------3---------|-------5---------|-------5----------|
A|--1---------------|-1---------------|-3---------------|-3----------------|
E|------------------|-----------------|-----------------|------------------|

    Bbsus4                              Am         Fmaj7  G         Em7
e|----------1-------|---------1-------|-----------------|------------------|
B|----1-------1---3-|---1-------1---3-|---1-----------1-|------------------|
G|------3-------3---|-----3-------3---|-----2-------2---|---0--------------|
D|--------3---------|-------3---------|-------2---------|-----0---------2--|
A|--1---------------|-1---------------|-0---------------|-------2-----2----|
E|------------------|-----------------|-----------------|-3---------0------|

    Am         Fmaj7  G
e|------------------|---------3-------|---------3-------|
B|----1-----------1-|---0-------0---0-|---0-------0---0-|
G|------2-------2---|-----0-------0---|-----0-------0---|
D|--------2---------|-------0---------|-------0---------|
A|--0---------------|-----------------|-----------------|
E|------------------|-3---------------|-3---------------|

Verse
    F/A               G/B               C                 C/B
e|----1-----1-------|---3-----3-------|---------0-------|---------0--------|
B|------1-----1---1-|-----3-----3---3-|---1-------1---1-|---1-------1---1--|
G|--------2-----2---|-------0-----0---|-----0-------0---|-----0-------0----|
D|------------------|-----------------|-------2---------|-------2----------|
A|--0---------------|-2---------------|-3---------------|-2----------------|
E|------------------|-----------------|-----------------|------------------|

    Am                G                 Bb
e|----------0-------|---------3-------|-----------------|------------------|
B|----1-------1---1-|---0-------0---0-|---------6-----6-|---------6-----6--|
G|------0-------0---|-----0-------0---|---7-------7-----|---7-------7------|
D|--------2---------|-------0---------|-----8-------8---|-----8-------8----|
A|--0---------------|-----------------|-------8---------|-------8----------|
E|------------------|-3---------------|-6---------------|-6----------------|

Solo (From "Musetta's Waltz" goes here)

                
Composición de Jonathan Larson
49 vistas
    • ½ Tono
    • A
    • Bb
    • B
    • C
    • Db
    • D
    • Eb
    • E
    • F
    • F#
    • G
    • Ab
  • Agregar a la lista

    0 comentarios

    Ver todos los comentarios

    ¿Lograste tocar?

    0 Tocaron 0 Aún no

    ¡Graba un video tocando Your Eyes y envíanoslo!

    00:00 / 00:00
    Otros videos de esta canción
    Repetir Calidad Automático
    Otros videos de esta canción
    00:00 / 00:00
    Automático
    OK