Cifra Club

Ponto de Paz

Replace

Cifrado: Principal (guitarra y guitarra eléctrica)
tono: Eb (con acordes en la forma de E) Afinación: Eb Ab Db Gb Bb Eb
Intro: A9  A9  B9  C#m
E|----------12---12--------------------
B|------------12---12------------------
G|-------14-------------------13---13--
D|----14----------------14-16---16---16
A|-12-----------------14---------------
E|-------------------------------------


Parte 1:
         A9
Eu não sei te olhar, sem querer te beijar
         B9                          C#m
Eu não sei te tocar, sem querer te abraçar
             A9
Eu não sei respirar, sem sentir o seu ar
         B9                     C#m
Na verdade eu não sei viver sem você
       A9
Não precisa dizer o que eu quero escutar
         B9                    C#m
Só apenas pensar e eu vou entender
         A9                      B9         C#m
Eu só quero saber se você vai me corresponder
E|----------12-------------------------
B|-------------12---------------------
G|---------------------------13-------
D|-----14-----------------16----16----
A|-12-----------------14--------------
E|------------------------------------


                         A9
Porque eu te quero muito mais
                        B9       C#m
Com certeza você é meu ponto de paz, minha calma
        A9
Só de dizer que está tudo bem
        B9                   C#m
(eu te amo como nunca amei alguém)

                          A9
Porque eu te quero muito mais
                        B9       C#m
Com certeza você é meu ponto de paz, minha calma
        A9
Só de dizer que está tudo bem
        B9                   C#m
(eu te amo como nunca amei alguém)
E|----------------------------------------------------------------
B|--------------12-------------------------------14--12-----12----
G|-------------------------------------------------------14-------
D|-13h14p13p11---------14-13-14------13h14p13p11------------------
A|----------------------------------------------------------------
E|----------------------------------------------------------------


           A9    B9 C#m (2x)
Yeah yeah yeah...

Parte 2:
( A9  A9  B9  C#m )
Diz tudo, diz nada
Conversa fiada
Eu gosto é de dar risada com você
De longe, de perto
Coração aberto
Você pode entrar quando bem entender
Criadora da magia, da sedução
Veio e me enfeitiçou
E agora é dona do meu coração
Hoje eu vou dar uma festa
Você está convidada
Essa festa é minha e sua
Sua presença é esperada
Você me ensinou o que é gostar de verdade
Antes o que era sonho se tornou realidade
Pode chover, trovejar
Não vou ligar
Pois se estiver do meu lado
Eu vou pra qualquer lugar

( A9  A9  B9  C#m )

           A9 A9 B9 C#m
Ohhh HuoHuoo

Parte 3:
     A9
Diz tudo, diz nada
Conversa fiada
     B9                 C#m
Eu gosto é de dar risada com você
     A9
De longe, de perto
Coração aberto
B9          C#m
Você pode entrar...
E|----------12------------------------
B|-------------12---------------------
G|---------------------------13-------
D|-----14-----------------16----16----
A|-12-----------------14--------------
E|------------------------------------


                         A9
Porque eu te quero muito mais
                        B9       C#m
Com certeza você é meu ponto de paz, minha calma
        A9
Só de dizer que está tudo bem
        B9                   C#m
(eu te amo como nunca amei alguém)

                          A9
Porque eu te quero muito mais
                        B9       C#m
Com certeza você é meu ponto de paz, minha calma
        A9
Só de dizer que está tudo bem
        B9                   C#m
(eu te amo como nunca amei alguém)
Refrão 2:
E|----------------------------------------------------------------
B|--------------12-------------------------------14--12-----12----
G|-------------------------------------------------------14-------
D|-13h14p13p11---------14-13-14------13h14p13p11------------------
A|----------------------------------------------------------------
E|----------------------------------------------------------------

Solo:
E|--------------11-11h12-11------------------------------------------------------
B|-12b-12p11h12-------------12-12------------------------------------------------
G|--------------------------------14-13-13h14-13---------------------------------
D|-----------------------------------------------14-14~-14~---14h16p14--14h16p14-
A|----------------------------------------------------------14---------14--------
E|-------------------------------------------------------------------------------

E|-16b-16-----16b-16-19-17-16h17p16-------16b-16-------------------------
B|-------17-------------------------17-----------17-16-16h17-16----------
G|--------------------------------------------------------------16h18p16-
D|----------------------------------------------------------------------- (2x)
A|-----------------------------------------------------------------------
E|-----------------------------------------------------------------------


                          A9
Porque eu te quero muito mais
                        B9       C#m
Com certeza você é meu ponto de paz, minha calma
        A9
Só de dizer que está tudo bem
        B9                   C#m
(eu te amo como nunca amei alguém)

        ( A9  A9  B9  C#m )
Eu quero muito mais
(Minha calma só de te seguir está tudo bem)
Minha calma só de te seguir
Está tudo bem ...
00:00 / 00:00
Otros videos de esta canción
Repetir
Otros videos de esta canción
Composición de Beto Ferrari / Caio C.
Colaboración y revisión:
  • Alberto Souza
15 vistas
    • ½ Tono
    • A
    • Bb
    • B
    • C
    • Db
    • D
    • Eb
    • E
    • F
    • F#
    • G
    • Ab
  • Agregar a la lista

    0 comentarios

    Ver todos los comentarios

    ¿Lograste tocar?

    5 Tocaron 0 Aún no

    ¡Graba un video tocando Ponto de Paz y envíanoslo!

    00:00 / 00:00
    OK