Cifra Club

Knockin' On Heaven's Door

Rest in Peace

Cifrado: Principal (guitarra y guitarra eléctrica)
tono: G
Intro: G D Am - G D C entra em power accords 
       G D Am - G D C 
 
   Riff 1                                 Riff 2     
e|-------------0-------------------|  e|-----------------------------| 
B|-----0h1-----------1-------------|  B|---1-------------1-----------| 
G|---2-----2-------2---2-----0---0-|  G|-0---0---------0---0---------| 
D|-2---------2---2-------0h2---2---|  D|-------2---2---------2---2---| 
A|---------------------------------|  A|---------3---3---------3---0-| 
E|---------------------------------|  E|-----------------------------| 
 
Letra Cifrada 
   
G          D               Am 
Mamma take this badge from me  Riff 1 
G          D         C 
I can't use it anymore  Riff 2 
G                 D             Am 
It's getting dark, too dark to see  Riff 1 
G              D                       C  
Feels like I'm knockin' on heaven's door Riff 2    
 
G             D                     C  
Knock, knock, knockin' on heaven's door,Hey, hey, hey, hey, yeah 
G             D                     C  
Knock, knock, knockin' on heaven's door 
G                  D                     C 
Knock, knock, knockin' on heaven's door, Ooh yeah 
G             D                     C  
Knock, knock, knockin' on heaven's door, Hey, hey, hey, hey, yeah 
 
Solo 1 
|----------------------------------------------------------| 
|--------------------15fb----------------------------------| 
|-12-14fb-14p12-14---------14fb-12-12~~~----------------12-| 
|------------------------------------------13/14-----------| 
|----------------------------------------------------------| 
|----------------------------------------------------------| 
 
|--------------------------------------------------------15----| 
|-15/17--15---13p12-13/15--13p12---13p12-----------12-13----13-| 
|--------------------------------------------------------------| 
|-----------------------------------------14~~~----------------| 
|--------------------------------------------------------------| 
|--------------------------------------------------------------| 
 
|--------------15-17fb----17fb--17fb--15----20fb-20p19-20---| 
|12~~~---15/17----------------------------------------------| 
|-----------------------------------------------------------| 
|-----------------------------------------------------------| 
|-----------------------------------------------------------| 
|-----------------------------------------------------------| 
 
|-19-20fb--20-19-20------------------------------------------------| 
|-------------------17~~~------------------------------------------| 
|-------------------------19//-----------------------------------| 
|-----------------------------------------19//-------------------| 
|----------------------------------------------------------17--17--| 
|------------------------------------------------------------------| 
 
G         D                  Am 
Mama, put my guns in the ground  Riff 1 
G       D                C 
I can't shoot them anymore  Riff 2 
G               D                 Am 
That cold black cloud is comin' down  Riff 1 
G              D                       C 
Feels like I'm knockin' on heaven's door  Riff 2 
 
G             D                     C  
Knock, knock, knockin' on heaven's door,Hey, hey, hey, hey, yeah 
G             D                     C  
Knock, knock, knockin' on heaven's door 
G                  D                C 
Knock, knock, knockin' on heaven's door,Hey, hey, hey, hey, yeah 
G             D                     C  
Knock, knock, knockin' on heaven's door 
 
Solo 2 
|-----------------------10-15-14-14b|----------14~---14r-14p12-| 
|--------------13----13-------------|--------------------------| 
|--12-------------12----------------|--------------------------| 
|-----------------------------------|--------------------------| 
|--10-------------------------------|--------------------------| 
|-----------------------------------|--------------------------| 
 
|--14p12---------15-----15-----------|------15----------------15----15--15--| 
|--------15b--------15r----15--13-15-|---------15--------15~-----15-15--15--| 
|------------------------------------|--14b-------14--12-14~--------14b-14b-| 
|------------------------------------|--------------------------------------| 
|------------------------------------|--------------------------------------| 
|------------------------------------|--------------------------------------| 
 
|--------------15----17b-17b15-17-15-20-19-|--20-20b--20-19-20-20b--20-19-20-22b-22b| 
|-----------15----15-----------------------|----------------------------------------| 
|--12~---16--------------------------------|----------------------------------------| 
|------------------------------------------|----------------------------------------| 
|------------------------------------------|----------------------------------------| 
|------------------------------------------|----------------------------------------| 
 
|---22--------22------------------------------|----------15------------------| 
|------20-22b----22--20-22-22-22p20-22-20--19b|--19~--------19-----19r-19p17-| 
|---------------------------------------------|------------------------------| 
|---------------------------------------------|------------------------------| 
|---------------------------------------------|------------------------------| 
|---------------------------------------------|------------------------------| 
 
|--------------15-----15-----------------|--------------------------| 
|--19p17-17~------17-----17p15----15-----|--------------------------| 
|------------------------------17--------|--16r---------------------| 
|------------------------------------16r-|--------17----16~-----16r-| 
|----------------------------------------|--------------------------| 
|----------------------------------------|--------------------------| 
 
|-------------------------------------------------| 
|-------------------------------------------------| 
|-------------------------------------------------| 
|---14---14~---14-12-----------------------------| 
|------------------------15p14--------------------| 
|-------------------------------15~---------------| 
 
G D Am Riff1 
G D C  Riff2 
G D Am Riff1 
G D C  Riff2 
 
G             D                     C  
Knock, knock, knockin' on heaven's door,Hey, hey, hey, hey, yeah 
G             D                     C  
Knock, knock, knockin' on heaven's door 
G                  D                C 
Knock, knock, knockin' on heaven's door,Hey, hey, hey, hey, yeah 
G             D                     C  
Knock, knock, knockin' on heaven's door 
G             D                     C  
Knock, knock, knockin' on heaven's door,Hey, hey, hey, hey, yeah 
G             D                     C  
Knock, knock, knockin' on heaven's door 
G                  D                C 
Knock, knock, knockin' on heaven's door,Hey, hey, hey, hey, yeah 
G             D                     C  
Knock, knock, knockin' on heaven's door
Compositor no encontrado.
16 vistas
    • ½ Tono
    • A
    • Bb
    • B
    • C
    • Db
    • D
    • Eb
    • E
    • F
    • F#
    • G
    • Ab
  • Agregar a la lista

    0 comentarios

    Ver todos los comentarios

    ¿Lograste tocar?

    0 Tocaron 0 Aún no

    ¡Graba un video tocando Knockin' On Heaven's Door y envíanoslo!

    00:00 / 00:00
    Otros videos de esta canción
    Repetir Calidad Automático
    Otros videos de esta canción
    00:00 / 00:00
    Automático
    OK