Cifra Club

Aprenda

Meus Segredos

Restart

Tablatura: Principal (guitarra)
tono: G
Intro: E  A  G  D
E|--------------------------------9-8-7-8-------------|
B|---------------11--9--11--9---9----------9~---------|
G|--9--11--9-11---------------------------------------|
D|----------------------------------------------------|
A|----------------------------------------------------|
E|----------------------------------------------------|

E|----9-8-7-8-------------|
B|-9-----------9~---------|
G|------------------------|
D|------------------------|    (2x)
A|------------------------|
E|------------------------|


  A                      E
Os caminhos parecem ser tão iguais
  G                   D                 A
Tudo me faz te querer e cada vez mais
 E              G            D
eu não consigo te esquecer
 A                   E
Vou viver, aprender com os meus erros
 G             D
esses versos eu jogo ao vento
 C  Em                             D
pra te convencer, não te deixar partir.

  A          E
Por favor não faz assim,
  G           D
deixa eu te levar
  A        E
me dê a mão, estou aqui
  G           D
e eu vou te guiar

Refrão:
 A                          E
e eu não vou mais te contar meus segredos,
 G               D
fui eu que errei mas já faz algum tempo,
 A            E          G             D
igual a você, nunca mais encontrei ninguém.
 A             E
e eu vou lutar contra todos seus medos
 G             D
Gostar de você pelo que tem por dentro
 A            E                    G
mas uma vez, eu sei ainda estou em ti
 D
é só dizer que sim
Colaboración y revision:
  • pedro lanza
114 reproducciones
    • ½ Tono
    • A
    • Bb
    • B
    • C
    • Db
    • D
    • Eb
    • E
    • F
    • F#
    • G
    • Ab
  • Adicionar à lista

    0 comentarios

    Ver todos os comentários

    ¿Conseguiste tocar?

    0 Tocaram 1 Ainda não

    Grave um vídeo tocando Meus Segredos e nos envie!

    00:00 / 00:00
    outros vídeos desta música
    repetir qualidade Automático
    Outros vídeos desta música
    00:00 / 00:00
    Automático
    OK