Cifra Club

Deixa Acontecer

Grupo Revelação

Cifrado: Principal (guitarra y guitarra eléctrica)
tono: Bm
[Intro]

E|--2------3-5-3-2--------------------------|
B|----3-------------------------------------|
G|------4-----------2-4---------------------|
D|----------------4-------------------------|
A|------------------------------------------|
E|------------------------------------------|

E|--2-----------7---------------------------|
B|----3----7-7---7--------------------------|
G|------4-----------------------------------|
D|------------------------------------------|
A|------------------------------------------|
E|------------------------------------------|

E|--2------3-5-3-2--------------------------|
B|----3-------------------------------------|
G|------4-----------2-4---------------------|
D|----------------4-------------------------|
A|------------------------------------------|
E|------------------------------------------|

                         D7
E|--2-----------7--------2------------------|
B|----3----7-7---7-------1------------------|
G|------4----------------2------------------|
D|-----------------------0------------------|
A|------------------------------------------|
E|------------------------------------------|
                          
[Refrão]

 D7          G7M   F#7  Bm
Deixa acontecer naturalmente
D7            G7M   F#7   Bm  Bbm  Am
Eu não quero ver você chorar
          D7  G7M   F#7      Bm
Deixa que o amor encontre a gente
 D7         C#m7(5-)  F#7  Bm
Nosso caso vai      eternizar
A7  Bm  D7          G7M   F#7  Bm
       Deixa acontecer naturalmente
D7            G7M   F#7   Bm  Bbm  Am
Eu não quero ver você chorar
          D7  G7M   F#7      Bm
Deixa que o amor encontre a gente
 D7         C#m7(5-)  F#7  Bm
Nosso caso vai      eternizar

[Primeira Parte]

D7M
    Você já disse que me quer
F#m7
     Pra toda a vida, eternidade
                Em       A
Quando está distante de mim
            Em  F#m7  G7M  A7
Fica louca de  sau---da---de
D6                            F#m7
  Que é a razão do seu viver sou eu
                  Em     Em/D
Está tudo bem, eu acredito
               C#m7(5-)    F#7
Eu não tô duvidando   disso

[Segunda Parte]

Bm
   Só que eu tenho muito medo
           F#m7
De me apaixonar
Em                   F#7          Bm
   Esse filme já passou na minha vida
A4(7)            A7      D6
E você tá me ajudando a superar
C#m7(5-)                     F#7        Bm
        Eu não quero ser um mal na sua vida

[Refrão]

 D7          G7M   F#7  Bm
Deixa acontecer naturalmente
D7            G7M   F#7   Bm  Bbm  Am
Eu não quero ver você chorar
          D7  G7M   F#7      Bm
Deixa que o amor encontre a gente
 D7         C#m7(5-)  F#7  Bm
Nosso caso vai      eternizar
A7  Bm  D7          G7M   F#7  Bm
       Deixa acontecer naturalmente
D7            G7M   F#7   Bm  Bbm  Am
Eu não quero ver você chorar
          D7  G7M   F#7      Bm
Deixa que o amor encontre a gente
 D7         C#m7(5-)  F#7  Bm
Nosso caso vai      eternizar
00:00 / 00:00
Otros videos de esta canción
Repetir
Otros videos de esta canción
Composición de Alex Freitas / Carlos Caetano
18.202 vistas
    • ½ Tono
    • Am
    • Bbm
    • Bm
    • Cm
    • C#m
    • Dm
    • Ebm
    • Em
    • Fm
    • F#m
    • Gm
    • G#m
  • Agregar a la lista

    0 comentarios

    Ver todos los comentarios

    ¿Lograste tocar?

    80 Tocaron 58 Aún no

    ¡Graba un video tocando Deixa Acontecer y envíanoslo!

    00:00 / 00:00
    OK