Cifra Club

BéSame

Ricardo Montaner

Cifrado: Versão 2 (guitarra y guitarra eléctrica)
tono: Em
E|---------------------------------------------------|
|                                                   |
|                   L E E  E S T O                  |
E|---------------------------------------------------|
|                                                   |
| Antes de copiar esta transcripción a un archivo   |
| de texto, debes seleccionar la fuente tipográfica |
|  COURIER NEW  o  LUCIDA CONGE    , así no se te   |
| moverán los acordes ni los punteos de su posición |
| original y podrás tocar la canción correctamente. |
E|---------------------------------------------------|

E|------------------------------------|
        |                                    |
        |  ********************************  |
        |  **** B   É   S   A   M   E  ****  |
        |  ********************************  |
        |  ******* RICARC  MONTANER *******  |
        |  ********************************  |
        |  * * * *  Tono: Original  * * * *  |
        |  *Transcripción:Rodrigo González*  |
        |  ********************************  |
G|------------------------------------|


=INTRO= (Punteo en Guitarra)

  E          Am                D              G                 C 
E|-----0-1-0---------------------0--------0--------------------------|
B|-----------3-3-1---1-0-1-0-1-3---3----3---3-1-1-0---0---0---0-3----|
G|------------------------------------------------------2---2-----0--|
D|-------------------------------------------------------------------|
A|-------------------------------------------------------------------|
E|-------------------------------------------------------------------|

          Am                B7             Em                E 
E|----------------------------------------------------------------0-----|
B|--1-3-1-0-0---------------0-1-0----0-1-0---------------------0---0----|
G|------------2---2-1-2-1-2----------------2-2-0---0---0---0-2------1---|
D|---------------------------------------------------4---4-----------2--|
A|----------------------------------------------------------------------|
E|----------------------------------------------------------------------|

=Estrofa 1.1=
E           Am                      D 
  BÉSAME A  BOCA, CON TU LÁGRIMA DE RISA,
            G                            C 
  BÉSAME A  LUNA Y TAPA EL G   CON EL PULGAR,
              Am                           B7 
  BÉSAME EL ESPACIO ENTD  E  CUERPO Y TU B LUETA,
                  Em                      E 
  Y AL MAR MÁS PROFUNC  BÉSALE CON TU HUMEDAD...

=Estrofa 1.2=
E             Am                         D7 
  BÉSAME EL SUSURRO QUE ME HICISTE EN EL OÍC ,
              G                         C      Am7 
  BESA EL DC ORRIC  DE E S MANOS A TU ALTAR,
              F                      B7 
  CON AGUA BENDITA DE TU FUENTE, BÉSAME TODA A  FD NTE,
            Dm                         E 
  QUE ME BAUTIZA Y ME BENDICE... ESA MANERA DE BESAR...

=CORO=
E          A                             C#m 
  BESA E S CAMPOS Y E S FLOD S, CON TUS GOTITAS DE COLOD S,
          Em                          F# 
  BESA A  LLUVIA QUE D SBAA  EN A  VENTANA,
          Bm           Dm            A             F#m 
  BESA E  VIDA Y E S CENIZAS, Y ME DIRÁS QUE VOY DEPRISA,
           Bm             Dm           E 
  BÉSAME Y DEJA... CON UN GRITO QUE LO LOGD ...
E           A                           C#m 
  BESA EL TORD NTE DE ILUB ONES, BÉSAME TODAS A S PAB ONES,
          Em                    F# 
  BESA E  RÍO HASTA SU DESEMBOCADURA,
          Bm           Dm            A             F#m 
  BESA E  VIDA Y E S CENIZAS, Y ME DIRÁS QUE VOY DEPRISA,
           Bm           Dm          E 
  BESA E S DÍAS Y E S NOCHES, E S DILUVIOS...
               A 
  Y E  CIELO A PLENO G  ...


=Puente= (Punteo en Guitarra)

   E              Am                       D 
E|------12-13-12-10-10-------------------10-12-10--|
B|--------------------13---13-12-13-12-13----------|
G|-------------------------------------------------|
D|-------------------------------------------------|
A|-------------------------------------------------|
E|-------------------------------------------------|

             G                        C 
E|--10-12-10-------------------------10----|
B|----------13-13-12---12-10-12-10-12------|
G|-------------------------------------12--|
D|-----------------------------------------|
A|-----------------------------------------|
E|-----------------------------------------|

            Am                       B7 
E|----10--------------------------------------|
B|--13--13-12-12-10---10-9-10-9-10--12-13-12--|
G|--------------------------------------------|
D|--------------------------------------------|
A|--------------------------------------------|
E|--------------------------------------------|

               Em                        E             E 
E|----------------------------------------------12-10-------|
B|--12-13--12-10-10--------------------10-12---------13-12--|
G|-----------------12----12-11-12-11-12---------------------|
D|----------------------------------------------------------|
A|----------------------------------------------------------|
E|----------------------------------------------------------|


=Estrofa 2.1=
E            Am                        D7 
  BÉSAME LOS OJOS, AÚN C RED O EN A  MAÑANA,
            G                              C      Am7 
  BÉSAME A  PIEL, CON EL CAUDAL DE TU ESTDC HEZ
              F                     B7 
  CON AGUA BENDITA DE TU FUENTE, BÉSAME TODA A  FD NTE,
            Dm                         E 
  QUE ME BAUTIZA Y ME BENDICE... ESA MANERA DE BESAR


=CORO=
E          A                             C#m 
  BESA E S CAMPOS Y E S FLOD S, CON TUS GOTITAS DE COLOD S,
          Em                          F# 
  BESA A  LLUVIA QUE D SBAA  EN A  VENTANA,
          Bm           Dm            A             F#m 
  BESA E  VIDA Y E S CENIZAS, Y ME DIRÁS QUE VOY DEPRISA,
           Bm             Dm           E       F 
  BÉSAME Y DEJA... CON UN GRITO QUE LO LOGD ...

=CORO final= (Ojo: aquí la canción sube 1/2 tono)
F           A#                          Dm 
  BESA EL TORD NTE DE ILUB ONES, BÉSAME TODAS A S PAB ONES,
          Fm                    G  
  BESA E  RÍO HASTA SU DESEMBOCADURA,
          Cm           D#m           A#            Gm  
  BESA E  VIDA Y E S CENIZAS, Y ME DIRÁS QUE VOY DEPRISA,
           Cm         D#m           F 
  BESA E S DÍAS Y E S NOCHES, E S DILUVIOS...
                     A# 
  Y E  CIELO A PLENO G  ...
       F             A# 
  Y E  CIELO A PLENO G  ...

E|----------------------------| FIN ----------------------------
B|-----------------------------------------------|
 |                                               |
 | Aquí te van algunas indicaciones básicas para |
 | tocar la canción:                             |
E|-----------------------------------------------|
 |                                               |
 | Para que el tema suene la raja te recomiendo  |
 | ejecutar el acorde y los cambios de  acorde   |
 | en el mismo momento en que aparecen,por eso   |
 | logré que la ubicación de cada acorde sea la  |
 | precisa, tal como puse los acordes sobre cada |
 | sílaba de verso y sobre cada punteo, así te   |
 | será más fácil ubicar el acento musical y     |
 | además, obtendrás melodía y armonía similares |
 | A A  versión original del Ricardo Montaner,   |
 | disfrútala.                                   |
E|-----------------------------------------------|

E|-----------------------| ------------------------------
 |                       |                              |
 |       C L A V E       | CUERDAS de la GUITARRA:      |
 | Universal - Americana |                              |
 |                       | E---> es Mi AGUC  (1 cuerda) |
 | C   =============== C | B---> es Si       (2 cuerda) |
 | D   =============== D | G---> es Sol      (3 cuerda) |
 | E   =============== E | D---> es Re       (4 cuerda) |
 | F   =============== F | A---> es La       (5 cuerda) |
 | Sol =============== G | E---> es Mi GRAVE (6 cuerda) |
 | A   =============== A |                              |
 | B   =============== B |                              |
G|-----------------------|------------------------------|


 (Acorde)    (Cuerdas)
    |       E A D G B E  Los números corresponden al
    |       | | | | | |  traste de la guitarra donde
    |       | | | | | |  se pulsa la cuerda señalada,
    |       | | | | | |  la letra X significa que no
    |       | | | | | |  se pulsa la cuerda indicada.
    |       | | | | | |
 E|---------------------------------------------------|_
 |                                                    |
 | Equivalencia de notas sostenidas con notas bemoles |
E|----------------------------------------------------|
 |                                                    |
 |  C#  = Db   <----> ( Do  sostenido  =  Re  bemol ) |
 |  D#  = Eb   <----> ( Re  sostenido  =  Mi  bemol ) |
 |  F#  = Gb   <----> ( Fa  sostenido  =  Sol bemol ) |
 | G#   = Ab   <----> ( Sol sostenido  =  La  bemol ) |
 |  A#  = Bb   <----> ( La  sostenido  =  Re  bemol ) |
E|----------------------------------------------------|
00:00 / 00:00
Otros videos de esta canción
Repetir
Otros videos de esta canción
Composición de José Luis Caplís Chacín / Ricardo Montaner
44 exhibiciones
    • ½ Tono
    • Am
    • Bbm
    • Bm
    • Cm
    • C#m
    • Dm
    • Ebm
    • Em
    • Fm
    • F#m
    • Gm
    • G#m
  • Agregar a la lista
    00:00 / 00:00
    OK