Cifra Club

Déjame Llorar

Ricardo Montaner

Chords: Principal (acoustic and electric guitars)
tone: Db

   C#               G#               F#
E|--------------------------4-----------------2-----------------|
B|-------6----------------4---4-------------2---2---------------|
G|-----6---6---6--------5-------5---------3-------3-------------|
D|---6-------6--------6-----------------4-----------------------|
A|-4----------------6-----------------4-------------------------|
E|-4----------------4-----------------2-------------------------|
          cuanto vacio       hay en   esta habitaci-------------


    A#m       D#m                   F#             C#          G#    G#sus
E|----------1-------2--------------------------------------------|
B|--------2-------4---4-----------2---2---------6----------------|
G|------3-------3-------3-------3---3---------6---------5-----6--|
D|--3-3-------1---------------4-------------6---------6-------6--|
A|--1-------------------------------------4-------------------6--|
E|--------------------------2-----------------------4------------|
   on        tanta pasi ----on colga-----da en la pared


se va igual que el principio esta parte

C#         G#       F#           A#m    D#m
cuanta dulsura diluyendose en el tiempo
            F#      C#    G#
cuantos otoños contigo y sin ti.

D#m          F#
millones de hojas
               C#
cellendo en tu cuerpo
D#m        F#
otoños de llanto
               G#  G#7
goteando en tu piel.


   C#
E|--------------------------------------------------------------|
B|-------6------6--------6-------6-------------------------------|
G|-----6---6---6-------6---6---6--------------------------------|
D|---6-------6-------6-------6----------------------------------|
A|-4---------------4--------------------------------------------|
E|-4---------------4--------------------------------------------|
iluminadayeternaenfurecida y tranquilasobre una al - - - -


E|---------1---------------1------------------2--------------1------|
B|-------1---1-----------1------------2-----2---2----2-----2---2----|
G|-----1-------1-------1--------------3---3-------3--3---3-------3--|
D|---3---------------3------------------4--------------4------------|
A|-3---------------3------------------------------------------------|
E|-1---------------1------------------2--------------2--------------|
fombradehierbayvasvolandodormidayunimposiblesilencioenmudeciendo mi vida



RASGUEAS COMO BAADA  TRANQUIA 
         G#
con una lagrima tuya y

una lagrima mia.

C#
iluminada y eterna

enfurecida y tranquila
             Fm
sobre una alfombra de hierbas

y vas volando dormida.

           F#
con una estrella fugaz

te confundi la otra noche
        G#
y te pedi tres deseos

mientras duraba tu luz.

            F# G#         A#m    Fm         F#     G#   C#
dejame llorar,    dejame llorar,    dejame llorar


C#         G#
cuantas caricias
   F#             A#m
perdidas en mi divan
D#m       F#      C#
cuanto reclamo a DIOS
             G#
mismo que ya no estas.

C#       G#
hago canciones
    F#              A#m    D#m
de amor en tu memoria
          F#
y en todas vuelvo
                  C#       G#
conociendo a la misma historia.

       C#
iluminada y eterna

enfurecida y tranquila
             Fm             A 
sobre una alfombra de hierbas

y vas volando dormida.

      F#
un imposible silencio

enmudeciendo mi vida
         G#
con una lagrima tuya y

una lagrima mia.

C#
iluminada y eterna

enfurecida y tranquila
             Fm
sobre una alfombra de hierbas

y vas volando dormida.

           F#
con una estrella fugaz

te confundi la otra noche
        G#
y te pedi tres deseos

mientras duraba tu luz.

            F# G#         A#m    Fm         F#     G#   C#
dejame llorar,    dejame llorar,    dejame llorar
00:00 / 00:00
Other videos of this song
Repeat
Other videos of this song
Composed by Piero Cassano / Ricardo Montaner
1.316 views
    • ½ Tone
    • A
    • Bb
    • B
    • C
    • Db
    • D
    • Eb
    • E
    • F
    • F#
    • G
    • Ab
  • Add to list
    00:00 / 00:00
    OK