Cifra Club

Volver

Ricardo Montaner

Cifrado: Principal (guitarra y guitarra eléctrica)
tono: C#m
               INTRO
E|----------------------------------------|
B|-13--12---12-12-12-12-13-15-------------|
G|-12--12---12---------------14-12--------|
D|----------------------------------------|
A|----------------------------------------|
E|----------------------------------------|

E|----------------------------------------|
B|----------------------------------------|
G|-12-12-12-12-14-16----------------------|
D|-12---------------16-14-----------------|
A|----------------------------------------|
E|----------------------------------------|

E|----------------------------------------|
B|----------------------------------------|
G|------------------16-14-14-12-12-----14-|
D|-12-12-12-12-14-16--------------16-17---|
A|-12-------------------------------------|
E|----------------------------------------|
            D PITE X 2 (INTRO)



E|----------------------------------------|
B|-13--12-------15-15--13-13--12-12-------|
G|-12--12-----12--------------------------|
D|----------14----------------------------|
A|----------------------------------------|
E|----------------------------------------|

E|----------------------------------------|
B|----------12----------------------------|
G|-14--14-12--14------17-17-16-16-14-14-12|
D|------------------16--------------------|
A|----------------17----------------------|
E|----------------------------------------|

E|----------------------------------------|
B|----------------------------------------|
G|------14-12----------16-1414-1212-------|
D|-17-16-------12-14.16------------16-----|
A|----------------------------------------|
E|----------------------------------------|

                         ESTRIBILLO
E|------------|---------1414-1414-16-----14--|
B|------------|-14-15-16------------17-16--17|
G|------14-12-|------------------------------|
D|-16-17------|------------------------------|
A|------------|------------------------------|
E|------------|------------------------------|

E|------------16-14-1414-16-----14--------|
B|-17-14-16-17-------------17-16--17------|
G|----------------------------------------|
D|----------------------------------------|
A|----------------------------------------|
E|----------------------------------------|

E|-----14---------------------------------|
B|-1717--16-14-17--16---------------------|
G|----------------------------------------|
D|----------------------------------------|
A|----------------------------------------|
E|----------------------------------------|
            D PITE (ESTRIBILLO)
00:00 / 00:00
Otros videos de esta canción
Repetir
Otros videos de esta canción
Composición de Ricardo Montaner
158 exhibiciones
    • ½ Tono
    • Am
    • Bbm
    • Bm
    • Cm
    • C#m
    • Dm
    • Ebm
    • Em
    • Fm
    • F#m
    • Gm
    • G#m
  • Agregar a la lista
    00:00 / 00:00
    OK