Cifra Club

Broken English

Rise Against

Cifrado: Principal (guitarra y guitarra eléctrica)
tono: Bb
Broken English" - Rise Against

Intro/Verso
E|------------------------------------------------------------------------| 
B|------------------------------------------------------------------------|
G|---------------------------------------8---7---------------------33333--|
D|---5---5555---6---6666----8---888888---x---x------1111111111--8--33333--|
A|---3---3333---3---3333----6---666666---6---5------1111111111--x--11111--|
D|--------------------------6---666666--------------1111111111--6---------|

Riff 1
E|--8-8-8--11-11-11--------------------------------------------------------------|
B|---8-8-8---8--8--8--11-11-11---8-9-8-8-8-9-9-9---------------------------------|
G|----------------------8--8--8-------8-8-8-8-8-8--10-10-10-10-8-7-8-------------|
D|---------------------------------------------------8--8--8---------------------| x2
A|-------------------------------------------------------------------------------|
D|-------------------------------------------------------------------------------|

veerso

Pre-refrão
E|-------------------------------------------------------------------------------|
B|-------------------------------------------------------------------------------|
G|-------------------------------------------------------------------------------|
D|--6--66666666666---8-----------------------------------------------------------|
A|--6--66666666666---8-----------------------------------------------------------|
D|--6--66666666666---8-----------------------------------------------------------|
       

Refrão                        
E|-------------------------------------------------------------------------------|
B|-------------------------------------------------------------------------------|
G|--555--88----------------------------------------------------------------------|
D|--555--88--55--88--6--66666-----3--33333---------------------------------------|
A|--333--66--55--88--6--66666-----3--33333---------------------------------------|
D|-----------55--88--6--66666-----3--33333---------------------------------------|
                     .  .....

E|-------------------------------------------------------------------------------|
B|-------------------------------------------------------------------------------|
G|--555--88----------------------------------------------------------------------|
D|--555--88--55--88--6--66666-----8--8--8--8-------------------------------------|
A|--333--66--55--88--6--66666-----8--8--8--8-------------------------------------|
D|-----------55--88--6--66666-----8--8--8--8-------------------------------------|
                     .  .....            

E|-------------------------------------------------------------------------|
B|-------------------------------------------------------------------------|
G|--555--88----------------------------------------------------------------|
D|--555--88--55--88--6--66666--33333----5--555555---88-6666--8-------------|
A|--333--66--55--88--6--66666--33333----5--555555---88-6666--8-------------|
D|-----------55--88--6--66666--33333----5--555555---88-6666--8-------------|
                     .  .....
pós-refrao
E|-------------------------------------------------------------------------------|
B|-------------------------------------------------------------------------------|
G|--5--------------------------------3-------------------------------------------|x2
D|--5---------6-----------1----------3-------------------------------------------|
A|--3---------6-----------1----------1-------------------------------------------|
D|------------6-----------1------------------------------------------------------|

Verso


Pre-Refrão
E|-------------------------------------------------------------------------------|
B|-------------------------------------------------------------------------------|
G|-------------------------------------------------------------------------------|
D|--6--66666666666---8-----------------------------------------------------------|
A|--6--66666666666---8-----------------------------------------------------------|
D|--6--66666666666---8-----------------------------------------------------------|
    


Base do solo
E|-------------------------------------------------------------------------------|
B|-------------------------------------------------------------------------------|
G|---8/--7---5555------------------------8/--7---5555----------------------------|
D|---x/--x---5555----1111----66666666----x/--x---5555--1111----66666666----------|
A|---6/--5---3333----1111----66666666----6/--5---3333--1111----66666666----------|
D|-------------------1111----66666666------------------1111----66666666----------|

Ponte
E|-------------------------------------------------------------------------------|
B|-------------------------------------------------------------------------------|
G|---8/--7---5555----------------------------------------------------------------|
D|---x/--x---5555----1111---6666---3333---5-555555-----88--6-666---8-------------|
A|---6/--5---3333----1111---6666---3333---5-555555-----88--6-666---8-------------|
D|-------------------1111---6666---3333---5-555555-----88--6-666---8-------------|

E|-------------------------------------------------------------------------------|
B|-------------------------------------------------------------------------------|
G|---8/--7---5555------------------------8/--7---5555----------------------------|
D|---x/--x---5555----1111----66666666----x/--x---5555--1111----66666666----------|
A|---6/--5---3333----1111----66666666----6/--5---3333--1111----66666666----------|
D|-------------------1111----66666666------------------1111----66666666----------|

E|--------------------------------------------------------------------------------|
B|--------------------------------------------------------------------------------|
G|---8/--7---5555-----------------------------------------------------------------|
D|---x/--x---5555--1111---6666---3333---5-555555-----888--6-666---8---------------|
A|---6/--5---3333--1111---6666---3333---5-555555-----888--6-666---8---------------|
D|-----------------1111---6666---3333---5-555555-----888--6-666---8---------------|


Refrão

fim
--------------|
--------------|
--------------|
-10-----------|
-10-----------|
-10-----------|
Compositor não encontrado.
Colaboración y revisión:
  • Leandro Souza
195 vistas
    • ½ Tono
    • A
    • Bb
    • B
    • C
    • Db
    • D
    • Eb
    • E
    • F
    • F#
    • G
    • Ab
  • Agregar a la lista

    0 comentarios

    Ver todos los comentarios

    ¿Lograste tocar?

    0 Tocaron 1 Aún no

    ¡Graba un video tocando Broken English y envíanoslo!

    00:00 / 00:00
    Outros vídeos desta música
    Repetir Calidad Automático
    Outros vídeos desta música
    00:00 / 00:00
    Automático
    OK