Cifra Club

Dancing For Rain

Rise Against

Tab de bajo: Principal
Acompaña nuestras novedades de Cifra Club en español.
¡Sigue nuestro perfil en Instagram!
Tuning: Drop D (Low to high: DADG) (Best with capo on first fret)

Acoustic Intro for guitar then...

Intro/Verse (0:13)                                   Fill A (0:37)
|-----------|-----------|-----------|-----------|    |-----------------|
|-----------|-----------|-----------|-----------|    |-----------------|
|-----------|-4-4-4-4-4-|-2-2-2-2-2-|-4-4-4-4-4-|    |-4-4-4-4-4-4-(4)-|
|-1-1-3-3-4-|-----------|-----------|-----------| 8x |-----------------|

Chorus (0:40)
|------------------|-----------------|-----------------|-----------------| 
|*-----------------|-----------------|-----------------|-----------------| 
|*-----------------|-----------------|-2-2-2-2-2-2-2-2-|-4-4-4-4-4-4-4-4-| 
|--1-1-1-1-1-1-1-1-|-4-4-4-4-4-4-4-4-|-----------------|-----------------| 

|-----------------|-----------------|-----------------|--------------|
|-----------------|-----------------|-----------------|-------------*|
|-----------------|-----------------|-2-2-2-2-2-2-2-2-|-2---4-4-4-4-*|
|-1-1-1-1-1-1-1-1-|-4-4-4-4-4-4-4-4-|-----------------|---4----------| 2x

Verse (1:05) 8x 
Fill A (1:28) 1x
Chorus 2x (1:31)

Bridge (1:56)
|-------------|--------------|------------|------------|
|-------------|--------------|------------|------------|
|-------------|--------------|------------|------------|
|-(1)---------|--------------|------------|------------|

(2:20)
|------------|------------|------------|------------|
|------------|------------|------------|------------|
|------------|-1-11-1-111-|-4-44-4-444-|-2-22-2-222-|
|-1-11-1-111-|------------|------------|------------| 2x

(2:44)
|----------------------|---------------------|
|*---------------------|---------------------|
|*---------------------|-1-1-1-1-1-1-1-1-1-1-|
|--1-1-1-1-1-1-1-1-1-1-|---------------------|

|---------------------|---------------------|
|---------------------|---------------------|
|-4-4-4-4-4-4-4-4-4-4-|-2-2-2-2-2-2-2-2-2-2-|
|---------------------|---------------------|

|---------------------|---------------------|
|---------------------|---------------------|
|---------------------|-1-1-1-1-1-1-1-1-1-1-|
|-1-1-1-1-1-1-1-1-1-1-|---------------------|

|---------------------|----------------------|
|---------------------|---------------------*|
|-4-4-4-4-4-4-4-4-4-4-|-4-4-4-4-4-4-4-4-4-4-*|
|---------------------|----------------------| 1x

Chorus (3:08) 2x

Outro (3:33)
|-----------------|-------------|
|-----------------|-------------|
|-2-2-2-2-2-2-2-2-|-2---4-4-4-4-|
|-----------------|---4---------| 4x

End on
|------------------------|
|------------------------|
|------------------------|
|-(1)--------------------| 1x

End

Have fun  :)

Key

( ) - let note ring
|----|
|*--*| - repeat bar(s)
|*--*|
|----|
Composición de Brandon Barnes / Chris Chasse / Joe Principe / Rise Against / Tim McIlrath
16 vistas

0 comentarios

Ver todos los comentarios

¿Lograste tocar?

0 Tocaron 0 Aún no

¡Graba un video tocando Dancing For Rain y envíanoslo!

00:00 / 00:00
Outros vídeos desta música
Repetir Calidad Automático
Outros vídeos desta música
00:00 / 00:00
Automático
OK