Cifra Club

Long Forgotten Sons

Rise Against

Tab de bajo: Principal
Acompaña nuestras novedades de Cifra Club en español.
¡Sigue nuestro perfil en Instagram!
(Intro)
       
Gb|---------------------------------|----------------------------------|
Db|-0-0-0-0-0-0-0-0-0-0-0-0-0-0-0-0-|-3-3-3-3-3-3-3-3------------------|
Ab|---------------------------------|-----------------1-1-1-1-1-1-1-1--|
Eb|---------------------------------|----------------------------------|
    1 + + + 2 + + + 3 + + + 4 + + +   1 + + + 2 + + + 3 + + + 4 + + + 

Gb|---------------------------------|----------------------------------|
Db|-5-5-5-5-5-5-5-5-5-5-5-5-5-5-5-5-|-3-3-3-3-3-3-3-3-2-2-2-2-2-2-2-2--|
Ab|---------------------------------|----------------------------------|
Eb|---------------------------------|----------------------------------|
    1 + + + 2 + + + 3 + + + 4 + + +   1 + + + 2 + + + 3 + + + 4 + + + 

Gb|---------------------------------|----------------------------------|
Db|-0-0-0-0-0-0-0-0-0-0-0-0-0-0-0-0-|-3-3-3-3-3-3-3-3------------------|
Ab|---------------------------------|-----------------1-1-1-1-1-1-1-1--|
Eb|---------------------------------|----------------------------------|
    1 + + + 2 + + + 3 + + + 4 + + +   1 + + + 2 + + + 3 + + + 4 + + + 

Gb|---------------------------------|----------------------------------|
Db|-5-5-5-5-5-5-5-5-5-5-5-5-5-5-5-5-|-3-3-3-3-3-3-3-3-2-2-2-2-2-2-2-2--|
Ab|---------------------------------|----------------------------------|
Eb|---------------------------------|----------------------------------|
    1 + + + 2 + + + 3 + + + 4 + + +   1 + + + 2 + + + 3 + + + 4 + + + 

Gb|---------------------------------|----------------------------------|
Db|-0-0-0-0-0-0-0-0-0-0-0-0-0-0-0-0-|-3-3-3-3-3-3-3-3------------------|
Ab|---------------------------------|-----------------1-1-1-1-1-1-1-1--|
Eb|---------------------------------|----------------------------------|
    1 + + + 2 + + + 3 + + + 4 + + +   1 + + + 2 + + + 3 + + + 4 + + + 

Gb|---------------------------------|----------------------------------|
Db|-5-5-5-5-5-5-5-5-5-5-5-5-5-5-5-5-|-3-3-3-3-3-3-3-3-2-2-2-2-2-2-2-2--|
Ab|---------------------------------|----------------------------------|
Eb|---------------------------------|----------------------------------|
    1 + + + 2 + + + 3 + + + 4 + + +   1 + + + 2 + + + 3 + + + 4 + + + 

Gb|---------------------------------|----------------------------------|
Db|-0-0-0-0-0-0-0-0-0-0-0-0-0-0-0-0-|-3-3-3-3-3-3-3-3------------------|
Ab|---------------------------------|-----------------1-1-1-1-1-1-1-1--|
Eb|---------------------------------|----------------------------------|
    1 + + + 2 + + + 3 + + + 4 + + +   1 + + + 2 + + + 3 + + + 4 + + + 

Gb|---------------------------------|----------------------------------|
Db|---------------------------------|----------------------------------|
Ab|-3-3-3-3-3-3-3-3-3-3-3-3-3-3-3-3-|-------------1-------3---5---3----|
Eb|---------------------------------|-1---3----------------------------|
    1 + + + 2 + + + 3 + + + 4 + + +   1 + + + 2 + + + 3 + + + 4 + + + 

(Verse)

Gb|------------------|------------------|------------------|------------------|
Db|-----3-------3----|-----3-------3----|-----3-------3----|-----3-------3----|
Ab|-5-5---5-5-5---5--|-5-5---5-5-5------|-5-5---5-5-5---5--|-5-5---5-5-5------|
Eb|------------------|------------------|------------------|------------------|
    1 + 2 + 3 + 4 +    1 + 2 + 3 + 4 +    1 + 2 + 3 + 4 +    1 + 2 + 3 + 4 + 

Gb|------------------|------------------|------------------|------------------|
Db|-5-------5--------|------------------|------------------|------------------|
Ab|---3-3-3---3-3-3--|-1-1-1-1-0---1-3--|-5-5-5-5-5-5-5-5--|-5-5-5-5----------|
Eb|------------------|-----------1------|------------------|---------33-3-33--|
    1 + 2 + 3 + 4 +    1 + 2 + 3 + 4 +    1 + 2 + 3 + 4 +    1 + 2 + 3 + 4 + 

Gb|------------------|------------------|------------------|------------------|
Db|-----3-------3----|-----3-------3----|-----3-------3----|---3-5-7-5-3-5-3--|
Ab|-5-5---5-5-5---5--|-5-5---5-5-5------|-5-5---5-5-5---5--|-5----------------|
Eb|------------------|------------------|------------------|------------------|
    1 + 2 + 3 + 4 +    1 + 2 + 3 + 4 +    1 + 2 + 3 + 4 +    1 + 2 + 3 + 4 + 

Gb|------------------|------------------|------------------|------------------|
Db|-5-------5--------|------------------|------------------|------------------|
Ab|---3-3-3---3-3-3--|-1-1-1-1-0---1-3--|-1-1-1-1-1-1-1-1--|-1-1-1-1----------|
Eb|------------------|-----------1------|------------------|---------1-1-1-1--|
    1 + 2 + 3 + 4 +    1 + 2 + 3 + 4 +    1 + 2 + 3 + 4 +    1 + 2 + 3 + 4 + 

Gb|------------------|------------------|
Db|------------------|-5555555555555555-|
Ab|-3-3-3-3-3-3-3-3--|------------------|
Eb|------------------|------------------|
    1 + 2 + 3 + 4 +    1 + 2 + 3 + 4 +    

(Chorus)

Gb|---------------------------------|----------------------------------|
Db|-0-0-0-0-0-0-0-0-0-0-0-0-0-0-0-0-|-3-3-3-3-3-3-3-3------------------|
Ab|---------------------------------|-----------------1-1-1-1-1-1-1-1--|
Eb|---------------------------------|----------------------------------|
    1 + + + 2 + + + 3 + + + 4 + + +   1 + + + 2 + + + 3 + + + 4 + + + 

Gb|---------------------------------|----------------------------------|
Db|-5-5-5-5-5-5-5-5-5-5-5-5-5-5-5-5-|-3-3-3-3-3-3-3-3-2-2-2-2-2-2-2-2--|
Ab|---------------------------------|----------------------------------|
Eb|---------------------------------|----------------------------------|
    1 + + + 2 + + + 3 + + + 4 + + +   1 + + + 2 + + + 3 + + + 4 + + + 

Gb|---------------------------------|----------------------------------|
Db|-0-0-0-0-0-0-0-0-0-0-0-0-0-0-0-0-|-3-3-3-3-3-3-3-3------------------|
Ab|---------------------------------|-----------------1-1-1-1-1-1-1-1--|
Eb|---------------------------------|----------------------------------|
    1 + + + 2 + + + 3 + + + 4 + + +   1 + + + 2 + + + 3 + + + 4 + + + 

Gb|---------------------------------|----------------------------------|
Db|---------------------------------|-7-7-7-7-7-7-7-7-3-3-3-3-3-3-3-3--|
Ab|-3-3-3-3-3-3-3-3-3-3-3-3-3-3-3-3-|----------------------------------|
Eb|---------------------------------|----------------------------------|
    1 + + + 2 + + + 3 + + + 4 + + +   1 + + + 2 + + + 3 + + + 4 + + + 

Gb|---------------------------------|----------------------------------|
Db|-0-0-0-0-0-0-0-0-0-0-0-0-0-0-0-0-|-3-3-3-3-3-3-3-3------------------|
Ab|---------------------------------|-----------------1-1-1-1-1-1-1-1--|
Eb|---------------------------------|----------------------------------|
    1 + + + 2 + + + 3 + + + 4 + + +   1 + + + 2 + + + 3 + + + 4 + + + 

Gb|---------------------------------|----------------------------------|
Db|-5-5-5-5-5-5-5-5-5-5-5-5-5-5-5-5-|-3-3-3-3-3-3-3-3-2-2-2-2-2-2-2-2--|
Ab|---------------------------------|----------------------------------|
Eb|---------------------------------|----------------------------------|
    1 + + + 2 + + + 3 + + + 4 + + +   1 + + + 2 + + + 3 + + + 4 + + + 

Gb|---------------------------------|----------------------------------|
Db|-0-0-0-0-0-0-0-0-0-0-0-0-0-0-0-0-|-3-3-3-3-3-3-3-3------------------|
Ab|---------------------------------|-----------------1-1-1-1-1-1-1-1--|
Eb|---------------------------------|----------------------------------|
    1 + + + 2 + + + 3 + + + 4 + + +   1 + + + 2 + + + 3 + + + 4 + + + 

Gb|---------------------------------|----------------------------------|
Db|---------------------------------|----------------------------------|
Ab|-3-3-3-3-3-3-3-3-3-3-3-3-3-3-3-3-|-3-3-3-3-3-3-3-3-3-3-3-3-3-3-3-3--|
Eb|---------------------------------|----------------------------------|
    1 + + + 2 + + + 3 + + + 4 + + +   1 + + + 2 + + + 3 + + + 4 + + + 

(Interlude)

Gb|------------------|------------------|------------------|------------------|
Db|-----3-------3----|-----3-------3----|-----3-------3----|------------------|
Ab|-5-5---5-5-5---5--|-5-5---5-5-5------|-5-5---5-5-5---5--|-------1---3-5-3--|
Eb|------------------|------------------|------------------|-1-3--------------|
    1 + 2 + 3 + 4 +    1 + 2 + 3 + 4 +    1 + 2 + 3 + 4 +    1 + 2 + 3 + 4 + 

(Verse)

Gb|------------------|------------------|------------------|------------------|
Db|-----3-------3----|-----3-------3----|-----3-------3----|-----3-------3----|
Ab|-5-5---5-5-5---5--|-5-5---5-5-5------|-5-5---5-5-5---5--|-5-5---5-5-5------|
Eb|------------------|------------------|------------------|------------------|
    1 + 2 + 3 + 4 +    1 + 2 + 3 + 4 +    1 + 2 + 3 + 4 +    1 + 2 + 3 + 4 + 

Gb|------------------|------------------|------------------|------------------|
Db|-5-------5--------|------------------|------------------|------------------|
Ab|---3-3-3---3-3-3--|-1-1-1-1-0---1-3--|-5-5-5-5-5-5-5-5--|-5-5-5-5----------|
Eb|------------------|-----------1------|------------------|---------33333333-|
    1 + 2 + 3 + 4 +    1 + 2 + 3 + 4 +    1 + 2 + 3 + 4 +    1 + 2 + 3 + 4 + 

Gb|------------------|------------------|------------------|------------------|
Db|-----3-------3----|-----3-------3----|-----3------------|---3-5-7-5-3-5-3--|
Ab|-5-5---5-5-5---5--|-5-5---5-5-5------|-5-5---5-0-3-5-0--|-5----------------|
Eb|------------------|------------------|------------------|------------------|
    1 + 2 + 3 + 4 +    1 + 2 + 3 + 4 +    1 + 2 + 3 + 4 +    1 + 2 + 3 + 4 + 

Gb|------------------|------------------|------------------|------------------|
Db|-5-------5--------|------------------|------------------|------------------|
Ab|---3-3-3---3-3-3--|-1-1-1-1-0---1-3--|-1-1-1-1-1-1-1-1--|-1-1-1-1----------|
Eb|------------------|-----------1------|------------------|---------1-1-1-1--|
    1 + 2 + 3 + 4 +    1 + 2 + 3 + 4 +    1 + 2 + 3 + 4 +    1 + 2 + 3 + 4 + 

Gb|------------------|------------------|
Db|------------------|-5555555555555555-|
Ab|-3-3-3-3-3-3-3-3--|------------------|
Eb|------------------|------------------|
    1 + 2 + 3 + 4 +    1 + 2 + 3 + 4 +    

(Chorus)

Gb|---------------------------------|----------------------------------|
Db|-0-0-0-0-0-0-0-0-0-0-0-0-0-0-0-0-|-3-3-3-3-3-3-3-3------------------|
Ab|---------------------------------|-----------------1-1-1-1-1-1-1-1--|
Eb|---------------------------------|----------------------------------|
    1 + + + 2 + + + 3 + + + 4 + + +   1 + + + 2 + + + 3 + + + 4 + + + 

Gb|---------------------------------|----------------------------------|
Db|-5-5-5-5-5-5-5-5-5-5-5-5-5-5-5-5-|-3-3-3-3-3-3-3-3-2-2-2-2-2-2-2-2--|
Ab|---------------------------------|----------------------------------|
Eb|---------------------------------|----------------------------------|
    1 + + + 2 + + + 3 + + + 4 + + +   1 + + + 2 + + + 3 + + + 4 + + + 

Gb|---------------------------------|----------------------------------|
Db|-0-0-0-0-0-0-0-0-0-0-0-0-0-0-0-0-|-3-3-3-3-3-3-3-3------------------|
Ab|---------------------------------|-----------------1-1-1-1-1-1-1-1--|
Eb|---------------------------------|----------------------------------|
    1 + + + 2 + + + 3 + + + 4 + + +   1 + + + 2 + + + 3 + + + 4 + + + 

Gb|---------------------------------|----------------------------------|
Db|---------------------------------|-7-7-7-7-7-7-7-7-3-3-3-3-3-3-3-3--|
Ab|-3-3-3-3-3-3-3-3-3-3-3-3-3-3-3-3-|----------------------------------|
Eb|---------------------------------|----------------------------------|
    1 + + + 2 + + + 3 + + + 4 + + +   1 + + + 2 + + + 3 + + + 4 + + + 

Gb|---------------------------------|----------------------------------|
Db|-0-0-0-0-0-0-0-0-0-0-0-0-0-0-0-0-|-3-3-3-3-3-3-3-3------------------|
Ab|---------------------------------|-----------------1-1-1-1-1-1-1-1--|
Eb|---------------------------------|----------------------------------|
    1 + + + 2 + + + 3 + + + 4 + + +   1 + + + 2 + + + 3 + + + 4 + + + 

Gb|---------------------------------|----------------------------------|
Db|-5-5-5-5-5-5-5-5-5-5-5-5-5-5-5-5-|-3-3-3-3-3-3-3-3-2-2-2-2-2-2-2-2--|
Ab|---------------------------------|----------------------------------|
Eb|---------------------------------|----------------------------------|
    1 + + + 2 + + + 3 + + + 4 + + +   1 + + + 2 + + + 3 + + + 4 + + + 

Gb|---------------------------------|----------------------------------|
Db|-0-0-0-0-0-0-0-0-0-0-0-0-0-0-0-0-|-3-3-3-3-3-3-3-3------------------|
Ab|---------------------------------|-----------------1-1-1-1-1-1-1-1--|
Eb|---------------------------------|----------------------------------|
    1 + + + 2 + + + 3 + + + 4 + + +   1 + + + 2 + + + 3 + + + 4 + + + 

Gb|---------------------------------|----------------------------------|
Db|---------------------------------|----------------------------------|
Ab|-3-3-3-3-3-3-3-3-3-3-3-3-3-3-3-3-|-3-3-3-3-3-3-3-3-3-3-3-3-3-3-3-3--|
Eb|---------------------------------|----------------------------------|
    1 + + + 2 + + + 3 + + + 4 + + +   1 + + + 2 + + + 3 + + + 4 + + + 

(Bridge)

Gb|------------------|------------------|------------------|------------------|
Db|------------------|-8-8-8-7-7-7------|-5-5-5------------|-2-2-2-3-3-3-5-5--|
Ab|-1-1-1-1-1-1-1-1/-|-------------8-8--|-------3-3-3-3-3--|------------------|
Eb|------------------|------------------|------------------|------------------|
    1 + 2 + 3 + 4 +    1 + 2 + 3 + 4 +    1 + 2 + 3 + 4 +    1 + 2 + 3 + 4 + 

Gb|------------------|------------------|------------------|------------------|
Db|------------------|-8-8-8-7-7-7------|------------------|-2-2-2-3-3-3-5-5--|
Ab|-1-1-1-1-1-1-1-1/-|-------------8-8--|-3-3-3-3-3-3-3-3--|------------------|
Eb|------------------|------------------|------------------|------------------|
    1 + 2 + 3 + 4 +    1 + 2 + 3 + 4 +    1 + 2 + 3 + 4 +    1 + 2 + 3 + 4 + 

Gb|------------------|------------------|------------------|------------------|
Db|------------------|-8-8-8-7-7-7------|-5-5-5------------|-2-2-2-3-3-3-5-5--|
Ab|-1-1-1-1-1-1-1-1/-|-------------8-8--|-------3-3-3-3-3--|------------------|
Eb|------------------|------------------|------------------|------------------|
    1 + 2 + 3 + 4 +    1 + 2 + 3 + 4 +    1 + 2 + 3 + 4 +    1 + 2 + 3 + 4 + 

Gb|------------------|------------------|------------------|------------------|
Db|------------------|-8-8-8-7-7-7------|------------------|------------------|
Ab|-1-1-1-1-1-1-1-1/-|-------------8-8--|-3-3-3-3-3-3-3-3--|------------------|
Eb|------------------|------------------|------------------|-1-----3-3-5-5-3--|
    1 + 2 + 3 + 4 +    1 + 2 + 3 + 4 +    1 + 2 + 3 + 4 +    1 + 2 + 3 + 4 + 

(Chorus)

Gb|------------------|------------------|------------------|------------------|
Db|-0-0-0-0-0-0-0-0--|-3-3-3-3----------|-5-5-5-5-5-5-5-5--|-3-3-3-3-2-2-2-2--|
Ab|------------------|---------1-1-1-1--|------------------|------------------|
Eb|------------------|------------------|------------------|------------------|
    1 + 2 + 3 + 4 +    1 + 2 + 3 + 4 +    1 + 2 + 3 + 4 +    1 + 2 + 3 + 4 + 

Gb|------------------|------------------|------------------|------------------|
Db|-0-0-0-0-0-0-0-0--|-3-3-3-3----------|------------------|------------------|
Ab|------------------|---------1-1-1-1--|-3-3-3-3-3-3-3-3--|-3----------------|
Eb|------------------|------------------|------------------|------------------|
    1 + 2 + 3 + 4 +    1 + 2 + 3 + 4 +    1 + 2 + 3 + 4 +    1 + 2 + 3 + 4 + 

(Chorus)

Gb|---------------------------------|----------------------------------|
Db|-0-0-0-0-0-0-0-0-0-0-0-0-0-0-0-0-|-3-3-3-3-3-3-3-3------------------|
Ab|---------------------------------|-----------------1-1-1-1-1-1-1-1--|
Eb|---------------------------------|----------------------------------|
    1 + + + 2 + + + 3 + + + 4 + + +   1 + + + 2 + + + 3 + + + 4 + + + 

Gb|---------------------------------|----------------------------------|
Db|-5-5-5-5-5-5-5-5-5-5-5-5-5-5-5-5-|-3-3-3-3-3-3-3-3-2-2-2-2-2-2-2-2--|
Ab|---------------------------------|----------------------------------|
Eb|---------------------------------|----------------------------------|
    1 + + + 2 + + + 3 + + + 4 + + +   1 + + + 2 + + + 3 + + + 4 + + + 

Gb|---------------------------------|----------------------------------|
Db|-0-0-0-0-0-0-0-0-0-0-0-0-0-0-0-0-|-3-3-3-3-3-3-3-3------------------|
Ab|---------------------------------|-----------------1-1-1-1-1-1-1-1--|
Eb|---------------------------------|----------------------------------|
    1 + + + 2 + + + 3 + + + 4 + + +   1 + + + 2 + + + 3 + + + 4 + + + 

Gb|---------------------------------|----------------------------------|
Db|---------------------------------|-7-7-7-7-7-7-7-7-3-3-3-3-3-3-3-3--|
Ab|-3-3-3-3-3-3-3-3-3-3-3-3-3-3-3-3-|----------------------------------|
Eb|---------------------------------|----------------------------------|
    1 + + + 2 + + + 3 + + + 4 + + +   1 + + + 2 + + + 3 + + + 4 + + + 

Gb|---------------------------------|----------------------------------|
Db|-0-0-0-0-0-0-0-0-0-0-0-0-0-0-0-0-|-3-3-3-3-3-3-3-3------------------|
Ab|---------------------------------|-----------------1-1-1-1-1-1-1-1--|
Eb|---------------------------------|----------------------------------|
    1 + + + 2 + + + 3 + + + 4 + + +   1 + + + 2 + + + 3 + + + 4 + + + 

Gb|---------------------------------|----------------------------------|
Db|-5-5-5-5-5-5-5-5-5-5-5-5-5-5-5-5-|-3-3-3-3-3-3-3-3-2-2-2-2-2-2-2-2--|
Ab|---------------------------------|----------------------------------|
Eb|---------------------------------|----------------------------------|
    1 + + + 2 + + + 3 + + + 4 + + +   1 + + + 2 + + + 3 + + + 4 + + + 

Gb|---------------------------------|----------------------------------|
Db|-0-0-0-0-0-0-0-0-0-0-0-0-0-0-0-0-|-3-3-3-3-3-3-3-3------------------|
Ab|---------------------------------|-----------------1-1-1-1-1-1-1-1--|
Eb|---------------------------------|----------------------------------|
    1 + + + 2 + + + 3 + + + 4 + + +   1 + + + 2 + + + 3 + + + 4 + + + 

Gb|---------------------------------|----------------------------------|
Db|---------------------------------|----------------------------------|
Ab|-3-3-3-3-3-3-3-3-3-3-3-3-3-3-3-3-|-3---3---3---3---3---3---3---3----|
Eb|---------------------------------|----------------------------------|
    1 + + + 2 + + + 3 + + + 4 + + +   1 + + + 2 + + + 3 + + + 4 + + + 
                  
Gb|---------------------------------||
Db|---------------------------------||
Ab|-5-------------------------------||
Eb|---------------------------------||
    1 + + + 2 + + + 3 + + + 4 + + +
Composición de Brandon Barnes / Joe Principe / Rise Against / Tim McIlrath / Zach Blair
Colaboración y revisión:
  • Eric Lazzaretti
29 vistas

0 comentarios

Ver todos los comentarios

¿Lograste tocar?

0 Tocaron 0 Aún no

¡Graba un video tocando Long Forgotten Sons y envíanoslo!

00:00 / 00:00
Outros vídeos desta música
Repetir Calidad Automático
Outros vídeos desta música
00:00 / 00:00
Automático
OK