Enviar cifraEntrar

We´re All Alone

Rita Coolidge

Acordes: Principal
reproducciones 643
Tono: G
Intro: 

       G     Am         Bm          Am                 G
E|---7----7-8------7-8-10-|-2 3h 2p---2 3h 2p-3-|---2-3-||
B|-----10-------10--------|---------5-----------|-3-----||
G|------------------------|---------------------|-------||
D|------------------------|---------------------|-------||
A|------------------------|---------------------|-------||
E|------------------------|---------------------|-------||

 
1ª estrofe

    F#m     B7   Em         Dm     G7     C
Outside the rain begins and it may never end  
   G/B         A#°            Am7
So cry no more on the shore a dream  
      D     D/C     Bm  Em     Am            D       D7  G
Will take us out to sea     Forever more, forever more 

2ª estrofe 
  
 F#m       B7       Em       Dm      G7      C
Close your eyes and dream and you can be with me  
  G/B              A#°                 Am7
'Neath the waves through the caves of hours 
 D     D/C   Bm    Em        Am               D        D7
Long forgotten now     We're all alone, we're all alone 

Refrão 
 
  G        Am              Bm
Close the window calm the light  
    B7            Em       Dm      G7    C
And it will be alright no need to bother now  
G/B        A#°         Am    D     D9    G
Let it out let it all begin Learn how to pretend

Passagem

 Am7 Bm7 Am7 G

3ª estrofe
   
 F#m    B7     Em      Dm         G7       C
Once a story's told it can't help but grow old  
G/B        A#°          Am         D     D/C   Bm   Em
Roses do lovers too so cast your seasons to the wind  
     Am             D           D7
And hold me dear oh hold me dear  

   Refrão

  G        Am              Bm       B7          Em
Close the window calm the light and it will be alright 
    Dm      G7    C   G/B         A#°        Am
No need to bother now  let it out let it all begin 
 D             Bm  Em       Am                    D
All's forgotten now    We're all alone oh oh we're all alone  
 
  G        Am              Bm       B7          Em
Close the window calm the light And it will be alright 
    Dm      G7    C   G/B       A#°        Am
No need to bother now let it out let it all begin 
D     D/C     Bm      Em
Owe it to the wind my love  

Solo
     Am     D          G           Am        Bm             B7


E|-----------------5-7\10~~|14b(15)-----14-15\(17)-17b(19)-14 15h 14p
B|-----------5-7-8---------|--------13~~------------------------------
G|-----4-5-7---------------|------------------------------------------
D|---7---------------------|------------------------------------------
A|-------------------------|------------------------------------------
E|-------------------------|------------------------------------------


                     Em                Dm
E|-------------14-|-14 15h 14p--------12-----------------------------|
B|--17-17b(19)----|-----------15b(17)----15-13-12--------------------|
G|----------------|-------------------------------14-12-14-14b(16)---|
D|----------------|--------------------------------------------------|
A|----------------|--------------------------------------------------|
E|----------------|--------------------------------------------------|


      G7           C    G/B             A#º           Am (fading)
E|-----------------------------------------------------|--------------
B|-12-13-15-15-13------15------------------------------|--------------
G|----------------12------14(15)-14-12-14b(16)r(14)-12-|-12-11-10-----
D|-----------------------------------------------------|----------12--
A|-----------------------------------------------------|--------------
E|-----------------------------------------------------|--------------


E|------------------------||
B|------------------------||
G|------------------------||
D|--10-9-10-10-9----------||
A|---------------12-10-12-||
E|------------------------||
  • 1
  • 2
  • 3
  • 4
  • 5
  • 6
  • 7
  • 8
  • 9
  • 10
  • 11
  • 12
    Acordes para:
      Colaboración y revision:
      • Alvaro Carneiro
      • William Gomes

      0 comentarios

        mostrar mas comentarios

        ¿Conseguiste tocar?

        1tocaron0aún no

        ¡Grave un vídeo tocando We´re All Alone y envie para nosotros!

        00:00 / 00:00
        outros vídeos desta música
        repetirqualidadeautomática
        • automática
        Outro vídeos desta música
          00:00 / 00:00
          automática
          • automática
          Acordes para:guitarra
          dificuldadreproduccionescontribuciones
          cerrarplay/pause subir/bajar velocidad
            Acordes para:guitarra
            acordes
            cerrar
            OK