Cifra Club

Agora Só Falta Você

Rita Lee

Cifrado: Principal (guitarra y guitarra eléctrica)
tono: C
[Intro] Am  F7M/C  Am  F7M/C
        Am  F7M/C  Am  F7M/C
        Am  G  F  Am  G  F
        Am  G  F  G

[Tab - Intro]

Parte 1 de 4
   Am             G     F
E|-0---0--0-0-0---3-----1-1-----------------|
B|-1---1--1-1-1---3-----1-1-----------------|
G|-2---2--2-2-2---0--X--2-2-----------------|
D|-2---2--2-2-2---0--X--3-3-----------------|
A|-0---0--0-0-0---2--X--3-3--------0-3------|
E|----------------3-----1-1--0-1-3----------|

Parte 2 de 4
   Am             G     F
E|-0---0--0-0-0---3-----1-1-----------------|
B|-1---1--1-1-1---3-----1-1-----------------|
G|-2---2--2-2-2---0--X--2-2-----------------|
D|-2---2--2-2-2---0--X--3-3-----------------|
A|-0---0--0-0-0---2--X--3-3--3-2---0-0------|
E|----------------3-----1-1------3----------|

Parte 3 de 4
   Am          G     F
E|-0--0--0-0-0-3-----1-1--------------------|
B|-1--1--1-1-1-3-----1-1--------------------|
G|-2--2--2-2-2-0--X--2-2--------------------|
D|-2--2--2-2-2-0--X--3-3--------------------|
A|-0--0--0-0-0-2--X--3-3--------------------|
E|-------------3-----1-1--0-1-0-1-2---------|

Parte 4 de 4
   G
E|-3----------------------------------------|
B|-3-----0h1--1---0------0--0---------------|
G|-0-----0----0---0------0--0---------------|
D|-0--0--0h2--2---0--0---0--0---------------|
A|-2-----------------2----------------------|
E|-3--3--------------3----------------------|

[Primeira Parte]

Am           G    F
   Um belo dia resolvi mudar
D                         G
  E fazer tudo o que eu queria fazer
Am              G    F
   Me libertei daquela vida vulgar
D                     G
  Que eu levava estando junto a você

[Segunda Parte]

Am                   F
   E em tudo que eu faço
Am                G
   Existe um porquê
F
Eu sei que eu nasci
    D                      G
Eu sei que eu nasci pra saber

(Passagem)

E|-----3-------5-------7-----8------10----------------|
B|-------0-------0------------------------------------|
G|-3/4-----4/5-----5/7---7/9---9/10----10-------------|
D|----------------------------------------------------|
A|----------------------------------------------------|
E|----------------------------------------------------|

[Primeira Parte - Variação Letra]

Am             G      F
   E fui andando sem pensar em voltar
D                      G
  E sem ligar pro que me aconteceu
Am           G       F
   Um belo dia vou lhe telefonar
D                        G
  Pra lhe dizer que aquele sonho cresceu

[Segunda Parte - Variação Letra]

Am                  F
   No ar que eu respiro, uu
Am              G
   Eu sinto prazer
    F
De ser quem eu sou
      D
De estar onde estou

[Refrão]

  Bb      F       C
Agora só falta você, iê, iê
  Bb      F       C
Agora só falta você, aaa
  Bb      F       C
Agora só falta você, iê, iê
  Bb      F       C
Agora só falta você

[Solo] Am  G  F  D  G
       Am  G  F  D  G
       Am  F  Am  G  F  D  G

[Primeira Parte - Variação Letra]

Am             G      F
   E fui andando sem pensar em voltar
D                      G
  E sem ligar pro que me aconteceu
Am           G       F
   Um belo dia vou lhe telefonar
D                        G
  Pra lhe dizer que aquele sonho cresceu

[Segunda Parte - Variação Letra]

Am                  F
   No ar que eu respiro, uu
Am              G
   Eu sinto prazer
    F
De ser quem eu sou
      D
De estar onde estou

[Refrão]

  Bb      F       C
Agora só falta você, iê, iê
  Bb      F       C
Agora só falta você, aaa
  Bb      F       C
Agora só falta você, iê, iê
  Bb      F       C
Agora só falta você
Composición de Luiz Sérgio Carlini / Rita Lee
Colaboración y revisión:
  • Gustavo Cunha
  • Júnior Senna
  • Marcelo Egéa
3.111 vistas
  • Simplificar cifrado
    • ½ Tono
    • A
    • Bb
    • B
    • C
    • Db
    • D
    • Eb
    • E
    • F
    • F#
    • G
    • Ab
  • Agregar a la lista

    0 comentarios

    Ver todos los comentarios

    ¿Lograste tocar?

    53 Tocaron 8 Aún no

    ¡Graba un video tocando Agora Só Falta Você y envíanoslo!

    00:00 / 00:00
    Outros vídeos desta música
    Repetir Calidad Automático
    Outros vídeos desta música
    00:00 / 00:00
    Automático
    Capítulos
    • Início
    • Tocando a Música
    • Acordes Introdução
    • Tocando Introdução
    • Ritmo da Introdução
    • Ensinando Introdução
    • Acordes Primeira Parte
    • Tocando Primeira Parte
    • Ritmo Primeira Parte
    • Tocando Segunda Parte
    • Ensinando Passagem
    • Acordes Refrão
    • Tocando Refrão
    • Ritmo Refrão
    • Tocando Solo
    • Ensinando o Solo
    • Encerramento
    OK