Cifra Club

Te Quero Tanto

Ritmo Quente

Chords: Principal (acoustic and electric guitars)
tone: Bb
Intro:

E|--------------------------------------|
B|-3------------------------------------|
G|---5-2-0-0-2--------------------------|
D|-------------3-0----------------------|
A|--------------------------------------|
E|--------------------------------------|

Gm                                    Cm  D7
   Vou te agarrar, vou te jogar na cama
Gm                           Cm  D7
   Te deixar bem molhada eu vou
Gm
   Sente só
                    Cm  D7
Isso entrando é o amor
Gm                                      Cm  D7
   Fazer amor um dia com você vai ser show
Gm                         Cm         D7
   Quando você toca em mim,   em mim,    em mim
Gm                       Cm       D7
   Sei que já estás afim    de fazer amor com calor
Gm                         Cm  D7
   Tire minha roupa assim,        vem pra mim
Gm                        Cm  D7
   Ei amor, please, vire-se

Eb
   Você é minha vida, baby
Dm
   Eu acho que a grande hora chegou
Cm                    Bb
   Não adianta fugir,    você vai ter que ir até o fim
Eb                          Dm
   Te quero tanto, neném, que não dá mais pra esperar
 Cm
Vem, meu bem, fazer valer
       D7                                      (Variação Intro)
Diz o velho ditado: mulher não se perde, se acha

Variação Intro:

E|--------------------------------------|
B|-3------------------------------------|
G|---5-2-0------------------------------|
D|---------3-0--------------------------|
A|--------------------------------------|
E|--------------------------------------|
00:00 / 00:00
Other videos of this song
Repeat
Other videos of this song
57 views
    • ½ Tone
    • A
    • Bb
    • B
    • C
    • Db
    • D
    • Eb
    • E
    • F
    • F#
    • G
    • Ab
  • Add to list

Afinação da cifra

Afinador online

    00:00 / 00:00
    OK