Cifra Club

Aprenda

Elesi

Rivermaya

Tab de bajo: Versão 3
VERSE/INTRO
G|------------------------------------------------------------------------|
D|------------------------------------------------------------------------|
A|------------------------------------------------------------------------|
E|-3333333-1010101010-1212121212-101010101010-----------------------------|

CHORUS
G|---------------------------------------------------------|
D|---------------------------------------------------------|
A|--33333333-----------------------------------------------|
E|-----------33333333-55555555-33333333--------------------|

G|---------------------------------------------------------|
D|---------------------------------------------------------|
A|--33333333--------------------------55555555-------------|
E|-----------33333333-121212121221212----------------------|

G|---------------------------------------------------------|
D|---------------------------------------------------------|
A|--33333333-----------------------------------------------|
E|-----------33333333-55555555-33333333--------------------|


G|---------------------------------------------------------|
D|---------------------------------------------------------|
A|--3-333-33-333-------------------------------------------|
E|---------------1-111-11-111------------------------------|

ADLIB
G|------------------------------------------------------|
D|------------------------------------------------------|
A|--33-2---------------33-2-----------------------------|
E|-------55-7-55-33---------55/1515---------------------|

G|---------------------------------------------------------------------|
D|----------------------------------5-3---------------5-3//12121212----|
A|---33-2------------------------3------5-3---------3------------------|
E|----------55--7--55--3--0-1--------------5-3--0-1--------------------|
weEE TsOy is the name 3yr old Basist awtz 101%correct taeness * kung male
lng kau message pa add n ren sa friendster ouch!!!

0 comentarios

Ver todos os comentários

¿Conseguiste tocar?

0 Tocaram 0 Ainda não

Grave um vídeo tocando Elesi e nos envie!

00:00 / 00:00
outros vídeos desta música
repetir qualidade Automático
Outros vídeos desta música
00:00 / 00:00
Automático
OK