Cifra Club

Aprenda

Elesi

Rivermaya

Tab de bajo: Versão 4
Album: (n/a)
Tabbed by: Jo Baluyot (*)

"You and I both know creatures like that don't exist..."

lyrics. Fairly easy to do as well. As with many of their songs, this one's in a basic scale pattern so all
of the fills aren't that hard to pull off.

Jo's Tab Legends

h - hammer on
p - pull of
\ - slide up
/ - slide down
+ - let note ring
( ) - note enclosed is optional


Intro
|-----------------------------------------------------|
|-----------------------------------------------------|
|--10-10-10-10-10-10-10h12-12-12----7-7-7-7-7-7--5-5--|
|-----------------------------------------------------|

|-----------------------------------------------------|
|-----------------------------------------------------|
|--10-10-10-10-10-10-10h12-12-12----7-7-7-7-7-7--5-5--|
|-----------------------------------------------------|


verse 1
|-----------------------------------------------------|
|-----------------------------------------------------|
|--10-10-10-10-10-10-10h12-12-12----7-7-7-7-7-7--5-5--|
|-----------------------------------------------------|

|-----------------------------------------------------|
|-----------------------------------------------------|
|--10-10-10-10-10-10-10h12-12-12----7-7-7-7-7-7--5-5--|
|-----------------------------------------------------|


pre-chorus 1
|---------------------------------------------------------------------------------------------|
|------------------------------------------------------------------------------------2-2-2-2--|
|--3-3-3-3\--------10-10-10-10-10-12-12-12-12-10-10-10-10---/3-3-3-3----5-5-5-----------------|
|------------------------------------------------------------------------3-3-3-3--------------|

|----------------------------------------------------------------------------------------------|
|------------------------------------------------------------------------------3--3-3-3-3-3-3--|
|--3-3-3-3\--------10-10-10-10-10-12-12-12-12-10-10-10-10---/3--3-3-3-3-3-3--------------------|
|----------------------------------------------------------------------------------------------|


chorus
|-----------------------------------------------------|
|-----------------------------------------------------|
|--10-10-10-10-10-10-10h12-12-12----7-7-7-7-7-7--5-5--|
|-----------------------------------------------------|

|-----------------------------------------------------|
|-----------------------------------------------------|
|--10-10-10-10-10-10-10h12-12-12----7-7-7-7-7-7--5-5--|
|-----------------------------------------------------|


pre-chorus 2
this is the part with the fill, check for timing and with the right speed this should be a cinch!
|---------------------------------------------------------------------|
|---------------------------------------------------------------------|
|--3-3-3-3\--------10-10-10-10-10-12-12-12-12-10-10-10-10---/3-3-3-3--|
|---------------------------------------------------------------------|

|----------------------------------------------------------------------|
|----------------------------------------------------------------------|
|--10-10-10-10-10-12-12-12-12-10-10-10-10--7-7-7-7-7-7--5-5-5-5-5-5-5--|
|----------------------------------------------------------------------|

|------------------------------------------------------------------------------------5-7---10h12p10+--|
|-----------------------------------------------------------------------------3--7--------------------|
|--3-3-3-3\--------10-10-10-10-10-12-12-12-12-10-10-10-10---/3--3-3-3-3-3-3---------------------------|
|-----------------------------------------------------------------------------------------------------|

chorus
|-----------------------------------------------------|
|-----------------------------------------------------|
|--10-10-10-10-10-10-10h12-12-12----7-7-7-7-7-7--5-5--|
|-----------------------------------------------------|

|-----------------------------------------------------|
|-----------------------------------------------------|
|--10-10-10-10-10-10-10h12-12-12----7-7-7-7-7-7--5-5--|
|-----------------------------------------------------|


solo
|-----------------------------------------------------------------------------------------------|
|----------------------------------------------------------------------------------------2-2-2--|
|--3-3-3-3\--------10-10-10-10-10-12-12-12-12-10-10-10-10---/3-3-3-3-----5-5-5------------------|
|-------------------------------------------------------------------------3-3-3-3---------------|

|------------------------------------------------------------------------------------------------------|
|------------------------------------------------------------------------------------------------------|
|--3-3-3-3------------------------------------------10-10-10-10-10-10-10h12-12-12----7-7-7-7-7-7--5-5--|
|---------------3-3-3-3----0-0-0-0-----1-1-1-1-1-------------------------------------------------------|

|-----------------------------------------------------|
|-----------------------------------------------------|
|--10-10-10-10-10-10-10h12-12-12----7-7-7-7-7-7--5-5--|
|-----------------------------------------------------|

|-----------------------------------------------------|
|-----------------------------------------------------|
|--10-10-10-10-10-10-10h12-12-12----7-7-7-7-7-7--5-5--|
|-----------------------------------------------------|


verse
|-----------------------------------------------------|
|-----------------------------------------------------|
|--10-10-10-10-10-10-10h12-12-12----7-7-7-7-7-7--5-5--|
|-----------------------------------------------------|

|-----------------------------------------------------|
|-----------------------------------------------------|
|--10-10-10-10-10-10-10h12-12-12----7-7-7-7-7-7--5-5--|
|-----------------------------------------------------|


pre-chorus
|----------------------------------------------------------------------|
|----------------------------------------------------------------------|
|--3-3-3-3\--------10-10-10-10-10-12-12-12-12-10-10-10-10---/3-3-3-3---|
|----------------------------------------------------------------------|

|----------------------------------------------------------------------|
|----------------------------------------------------------------------|
|--10-10-10-10-10-12-12-12-12-10-10-10-10--7-7-7-7-7-7--5-5-5-5-5-5-5--|
|----------------------------------------------------------------------|

|-----------------------------------------------------------------------------------------------|
|-------------------------------------------------------------------------------3--3-3-3-3-3-3--|
|--3-3-3-3\--------10-10-10-10-10-12-12-12-12-10-10-10-10---/3--3-3-3-3-3-3---------------------|
|-----------------------------------------------------------------------------------------------|


chorus/ outro
just go on and on till the song is finished
|-----------------------------------------------------|
|-----------------------------------------------------|
|--10-10-10-10-10-10-10h12-12-12----7-7-7-7-7-7--5-5--|
|-----------------------------------------------------|

|-----------------------------------------------------|
|-----------------------------------------------------|
|--10-10-10-10-10-10-10h12-12-12----7-7-7-7-7-7--5-5--|
|-----------------------------------------------------|

it's really easy huh? all you have to do is keep the brisk pace and you'll be just fine. since this is
quite fast, you can try playing with a pick to reduce the strain (",)

0 comentarios

Ver todos os comentários

¿Conseguiste tocar?

0 Tocaram 0 Ainda não

Grave um vídeo tocando Elesi e nos envie!

00:00 / 00:00
outros vídeos desta música
repetir qualidade Automático
Outros vídeos desta música
00:00 / 00:00
Automático
OK