Cifra Club

Aprenda

Elesi

Rivermaya

Tab de bajo: Versão 2
Tuning: EADG
Tabbed by: Paolo (*)

Legend:

\ - slide down
/ - slide up
h - hammer

Intro:

G|----------------------------------------------|
D|----------------------------------------------|
A|----\10101010-10-10---121212--7-7------555----|
E|----------------------------------0000--------| (4x)

Verse 1: Do the intro bass riffs (4x)

Refrain:

G|-----------------------------------------|
D|-----------------------------------------|
A|----3333\1010101010101010----------------|
E|---------------------------5555--3333----|

G|-----------------------------------------|
D|-----------------------------------------|
A|----3333\1010101010101010--7777--5555----|
E|-----------------------------------------|

G|-------------------------------------------------|
D|-------------------------------------------------|
A|----3333\1010101010101010--12121212--10101010----|
E|-------------------------------------------------|

G|-----------------------------|
D|-----------------------------|
A|----333--33--33--------------|
E|------------------111--11----|

Chorus: Do the intro bass riffs (2x)

Verse 2: Do the intro bass riffs (4x)

Repeat Refrain but this time, until the 3rd line only.
Replace the 4th line by this...

G|------------------------------------10h12-10----|
D|------------------------------10-12-------------|
A|----333--33--33------8--10-12-------------------|
E|------------------------------------------------|

Repeat Chorus

Guitar Adlib part:

G|-----------------------------------------|
D|-----------------------------------------|
A|----3333\1010101010101010----------------|
E|---------------------------5555--3333----|

G|--------------------------------------------|
D|--------------------------------------------|
A|----3333\1010101010101010--------3333333----|
E|---------------------------0000-------------|

Then do the intro bass riffs (2x)

Verse 3: Do the intro bass riffs again (4x)

Repeat Refrain but again, until the 3rd line only. Replace
the 4th line by this...

G|--------------------------------|
D|-----------------3---3---3------|
A|----333--33--33-----------------|
E|-------------------3---3---3----|

Do the intro bass riffs 'till the end of the song.

This is not a perfect transcription, ok?!
E-mail me! or add nyo ako sa friendster, ok?! (*) Enjoy...

0 comentarios

Ver todos os comentários

¿Conseguiste tocar?

0 Tocaram 0 Ainda não

Grave um vídeo tocando Elesi e nos envie!

00:00 / 00:00
outros vídeos desta música
repetir qualidade Automático
Outros vídeos desta música
00:00 / 00:00
Automático
OK