Cifra Club

Aprenda

Isang Bandila

Rivermaya

Tablatura: Principal (guitarra)
tono: C
Isang dugo, Isang ugat

Intro:

|---------15----------|-----------17---------------|
|---17p15----17-15-17-|-----17p15----17-15-17------|  
|---------------------|----------------------------| (repeat 4x)    
|---------------------|----------------------------|
|---------------------|----------------------------|
|---------------------|----------------------------|


       
|--------------------------|-----------------------------------|
|--------------------------|-----------------------------------|
|--------------------------|-----------------------------------|
|------7-7---5s7s9---5s7---|-7--5s7s9--5s7---------------------|
|------7-7---5s7s9---5s7---|-7--5s7s9--5s7---------------------|
|------5-5---3s5s7---3s5---|-5--3s5s7--3s5---------------------|

  
|---------------------------------|
|---------------------------------|
|---------------------------------|
|-7----5s7s9---5s10--5-2----------|
|-7----5s7s9---5s10--5-2----------|
|-5----3s5s7---3s8---3-0----------|

|--------------------------|-----------------------------------|
|--------------------------|-----------------------------------|
|--------------------------|-----------------------------------|
|------7-7---5s7s9---5s7---|-7--5s7s9--5s7---------------------|
|------7-7---5s7s9---5s7---|-7--5s7s9--5s7---------------------|
|------5-5---3s5s7---3s5---|-5--3s5s7--3s5---------------------|

  
|----------------------------------|
|----------------------------------|
|----------------------------------|
|-7----5s7s9---5s10--2-6-----------|
|-7----5s7s9---5s10--2-6-----------|
|-5----3s5s7---3s8---0-4-----------|

     :PM PM PM PM PM PM PM PM PM PM PM PM:
|----:-----------------------------------:--------------|
|----:-----------------------------------:--------------|
|----:-----------------------------------:--------------|
|----:7-7-7-7-9-9-----9-9----------------:--------------|
|----:-----------10-10---10-10--10--10-12:--------------|
|----:----------------------------12-----:--------------|

       :PM PM PM PM PM:
|------:--------------:---------------------------------|
|------:--------------:---------------------------------|
|------:--------------:---------------------------------|
|------:7-7-7-9-9-----:9-10p9p7-------------------------|
|------:---------10-10:---------------------------------|
|------:--------------:---------------------------------|


  :PM PM PM PM PM PM PM PM PM PM PM PM:
|----:-----------------------------------:--------------|
|----:-----------------------------------:--------------|
|----:-----------------------------------:--------------|
|----:7-7-7-7-9-9-----9-9----------------:--------------|
|----:-----------10-10---10-10--10--10-12:--------------|
|----:----------------------------12-----:--------------|

       :PM PM PM PM PM:
|------:--------------:---------------------------------|
|------:--------------:---------------------------------|
|------:--------------:---------------------------------|
|------:7-7-7-9-9-----:9-10p9p7s9p7-5-7-----------------|
|------:---------10-10:---------------------------------|
|------:--------------:---------------------------------|

VERSE1:
     :PM PM PM PM PM PM PM PM PM PM PM PM:
|----:-----------------------------------:--------------|
|----:-----------------------------------:--------------|
|----:-----------------------------------:--------------| (repeat 8x)
|----:7-7-7-7-9-9-----9-9----------------:--------------|
|----:-----------10-10---10-10--10--10-12:--------------|
|----:----------------------------12-----:--------------|

REFRAIN:

|---------15----------|-----------17---------------|
|---17p15----17-15-17-|-----17p15----17-15-17------|  
|---------------------|----------------------------| (repeat 4x)    
|---------------------|----------------------------|
|---------------------|----------------------------|
|---------------------|----------------------------|

CHORUS:
      
|------0---------3----------5--0------------------------|
|--------1----------------------------1---0--1----------|
|---------------------------------------2---------------|(Repeat 3x)
|-----2------------------2------------------------------|
|---3---------3--------0--------------------------------|
|-----------2-------------------------------------------|

|------0---------3----------5--0------------|
|--------1----------------------------------|
|-------------------------2-----------------|
|-----2-----------------0-------------------|
|---3---------3------------------------3----|
|-----------2--------------------------1----|

VERSE2:

     :PM PM PM PM PM PM PM PM PM PM PM PM:
|----:-----------------------------------:--------------|
|----:-----------------------------------:--------------|
|----:-----------------------------------:--------------| (repeat 8x)
|----:7-7-7-7-9-9-----9-9----------------:--------------|
|----:-----------10-10---10-10--10--10-12:--------------|
|----:----------------------------12-----:--------------|

REFRAIN:

|---------15----------|-----------17---------------|
|---17p15----17-15-17-|-----17p15----17-15-17------|  
|---------------------|----------------------------| (repeat 4x)    
|---------------------|----------------------------|
|---------------------|----------------------------|
|---------------------|----------------------------|

CHORUS:

guitar1:

                                     
|------0---------3----------5--0------------------------|
|--------1----------------------------1---0--1----------|
|-------------------------2-------------2---------------|(Repeat 3x)
|-----2-----------------0-------------------------------|
|---3---------3-----------------------------------------|
|-----------2-------------------------------------------|

|------0---------3----------5--0------------|
|--------1----------------------------------|
|-------------------------2-----------------|
|-----2-----------------0-------------------|
|---3---------3------------------------3----|
|-----------2--------------------------1----|


guitar2:

|-----------------------------------|
|-----------------------------------|
|-----------------------------------|
|----5-------7----------------------|(repeat 3x)
|----3---5---5--7-------------------|
|--------3------5-------------------|

|----------------------|
|----------------------|
|----------------------|
|----5-----------------|
|----3---5---7--3------|
|--------3---5--1------|


(OhhhhOhhhhhhhOhhhhhh part)
 (isang strum lng every chords, hayaan nyong mag feedback..timing lng)
|-----------------------|
|-----------------------|
|--5-----------9--------|(repeat 2x)
|-----------------------|
|--3-----------7--------|
|-----------------------|


CHORUS:

|-----------------------------------|
|-----------------------------------|
|-----------------------------------|
|----5-------7----------------------|(repeat 3x)
|----3---5---5--7-------------------|
|--------3------5-------------------|

|-----------------------|
|-----------------------|
|-----------------------|
|----5------------------|
|----3---5---7--3-------|
|--------3---5--1-------|



OUTRO:

|---------15----------|-----------17---------------|
|---17p15----17-15-17-|-----17p15----17-15-17------|  
|---------------------|----------------------------| (repeat 4x)    
|---------------------|----------------------------|
|---------------------|----------------------------|
|---------------------|----------------------------|

|--------------------------|-----------------------------------|
|--------------------------|-----------------------------------|
|--------------------------|-----------------------------------|
|------7-7---5s7s9---5s7---|-7--5s7s9--5s7---------------------|
|------7-7---5s7s9---5s7---|-7--5s7s9--5s7---------------------|
|------5-5---3s5s7---3s5---|-5--3s5s7--3s5---------------------|

  
|---------------------------------|
|---------------------------------|
|---------------------------------|
|-7----5s7s9---5s10--5-2----------|
|-7----5s7s9---5s10--5-2----------|
|-5----3s5s7---3s8---3-0----------|

|--------------------------|-----------------------------------|
|--------------------------|-----------------------------------|
|--------------------------|-----------------------------------|
|------7-7---5s7s9---5s7---|-7--5s7s9--5s7---------------------|
|------7-7---5s7s9---5s7---|-7--5s7s9--5s7---------------------|
|------5-5---3s5s7---3s5---|-5--3s5s7--3s5---------------------|

  
|----------------------------------|
|----------------------------------|
|----------------------------------|
|-7----5s7s9---5s10--2-6-----------|
|-7----5s7s9---5s10--2-6-----------|
|-5----3s5s7---3s8---0-4-----------|



timing lng po.... * salamat....
EGGTRAY BAND....ROCK on!

14 reproducciones
    • ½ Tono
    • A
    • Bb
    • B
    • C
    • Db
    • D
    • Eb
    • E
    • F
    • F#
    • G
    • Ab
  • Adicionar à lista

    0 comentarios

    Ver todos os comentários

    ¿Conseguiste tocar?

    0 Tocaram 0 Ainda não

    Grave um vídeo tocando Isang Bandila e nos envie!

    00:00 / 00:00
    outros vídeos desta música
    repetir qualidade Automático
    Outros vídeos desta música
    00:00 / 00:00
    Automático
    OK