Cifra Club

Aprenda

Panahon Na Naman

Rivermaya

Tab de bajo: Principal
*********************************************************************************************
Tabbed by:shortysphere
standard tuning (EADG)
********************************************************************************************


Bass:

Intro:
G:-------------------------------------------------------------I
D:------------------------------------0-0-0--------------------I
A:-------3-0h3-0--------3-0h3-0-------------0------------------I (2x)
E:--3--3---------0-3--3---------0-7-7---------8-8-5h8-5-8-5----I



Verse:
G:-------------------------------------------------------------I
D:------------------------------------0-0-0--------------------I
A:-------3-0h3-0--------3-0h3-0-------------0------------------I (2x)
E:--3--3---------0-3--3---------0-7-7---------8-8-5h8-5-8-5----I




Pre Chorus
G:---------------------------------I-----
D:---------------------------------I-----
A:---------------------------------I-2x--
E:-10-10--8-5h8-5-0-3-3-0h3-0-3-0--I-----

-----------------------------------------------------------I
--0-0^-----------------------------------------------------I
------------------2-2--5-5---------------------------------I
--------8-5h8-8-0-----------7-8-8-5h8-5-8-5--8-8-5h8-5-8-5-I




Chorus:
G:----------------------------------------------------------------------12-12-------12h14-12-----------------I
D:--------12/14-12-------12/14-12---------12/14-12-----7-9-10--10-13-15-------12h14-----------14-12----------I
A:-10-10------------9-9------------------------------7----------------------------------------------14-12----I(2x)
E:---------------------------------12-12------------------------------------------------------------------15-I



Solo 1:
G:-----------I
D:-----------I
A:--------3r-I (2x)
E:--3r--3----I



Solo 2:
G:----------------------------------------------------------------------12-12-------12h14-12-----------------I
D:--------12/14-12-------12/14-12---------12/14-12-----7-9-10--10-13-15-------12h14-----------14-12----------I
A:-10-10------------9-9------------------------------7----------------------------------------------14-12----I(2x)
E:---------------------------------12-12------------------------------------------------------------------15-I


h -Hammer-on
r -Let ring
/ -Slide up
\ -slide down
p -pull-off

*
8 reproducciones

0 comentarios

Ver todos os comentários

¿Conseguiste tocar?

0 Tocaram 0 Ainda não

Grave um vídeo tocando Panahon Na Naman e nos envie!

00:00 / 00:00
outros vídeos desta música
repetir qualidade Automático
Outros vídeos desta música
00:00 / 00:00
Automático
OK