Cifra Club

Little Wonders Intro

Rob Thomas

Cifrado: Principal (guitarra y guitarra eléctrica)
tono: E
intro:
e|-----------------|
b|14--14-12--------|
g|--14-----14--14--|
d|-----------14--12|
a|-----------------|
E|-----------------|

outro:
e|-----------------------------|
b|14--14-12------------------14|
g|--14-----14--------13-14-16--|
d|-----------14-12-16----------|
a|-----------------------------|
E|-----------------------------|

i'm pretty sure this is 100% correct just listen to the song for the * me know 
there's anything i can fix
Compositor não encontrado.
75 vistas
    • ½ Tono
    • A
    • Bb
    • B
    • C
    • Db
    • D
    • Eb
    • E
    • F
    • F#
    • G
    • Ab
  • Agregar a la lista

    0 comentarios

    Ver todos los comentarios

    ¿Lograste tocar?

    0 Tocaron 0 Aún no

    ¡Graba un video tocando Little Wonders Intro y envíanoslo!

    00:00 / 00:00
    Outros vídeos desta música
    Repetir Calidad Automático
    Outros vídeos desta música
    00:00 / 00:00
    Automático
    OK