Cifra Club

Aprenda

Rock DJ

Robbie Williams

Tab de bajo: Principal
Riff 1:
G|----------------------------------------|
D|----------------------------------------|
A|-5-3--5-3--5-3--5-3--5-3--5-3--5-3--5-3-|
E|----------------------------------------|

Riff 2:
G|--------------------------------------------------------|
D|-7----5---------7--------------7----5--------------5----|
A|---------5-----------3--5--------------5------3-------5-|
E|--------------------------------------------------------|

Riff 3:
G|--------------------------------------------------------|
D|------------------------------------7--------------5----|
A|-5----5--5------3----3--5------5-------5------3-------5-|
E|--------------------------------------------------------|

Riff 4:
G|----------------------------------------------------7-7-5-5-----|
D|-----------------------3---5-7------------------------------5-3-|
A|-5----5---3-5----5-5-5---5------5----5---3-5----5-5-------------|
E|----------------------------------------------------------------|

Riff 5:
G|--------------------------------------------------------------------------------------------|
D|--------------------------------------------------------------------------------------------|
A|-5---5-----3-------------3-5---5-----3-------------3-5---5-----3-------------2-3------------|
E|-------------3---3---3-----------------3---3---3-----------------3---3---3-5----------------|


Song order:

Riff 1 (x2)
Riff 2 (x2)
Riff 3
Riff 4 (x2)
Riff 1 (x2)
Riff 2 (x2)
Riff 3
Riff 4 (x4)
Riff 5
Riff 1

Composição de Ekundayo Paris / Guy Chambers / Kevin Andrews / Nelson Pigford / Robbie Williams
32 reproducciones

0 comentarios

Ver todos os comentários

¿Conseguiste tocar?

0 Tocaram 0 Ainda não

Grave um vídeo tocando Rock DJ e nos envie!

00:00 / 00:00
outros vídeos desta música
repetir qualidade Automático
Outros vídeos desta música
00:00 / 00:00
Automático
OK