Cifra Club

Vá Com Deus

Roberta Miranda

Tablatura: Principal (guitarra)
reproducciones 138
Tono: F
[Intro]
           Dm
E|-----0-1-3-5--6-5-3-0--3-5-6-5-3-6-5-3-5-3-1—-1-3-5-3-1-5-3-1-3-1-0--0h1-3-1-3-6-5-3---0h1--|
B|--3------------------------------------------3----------------------2----------------3-----3|
G|-2------------------------------------------------------------------------------------------|
D|0-------------------------------------------------------------------------------------------|
A|--------------------------------------------------------------------------------------------|
E|--------------------------------------------------------------------------------------------|

Dm
A cada dia Que se passa

Mais distante... um rosto tão bonito se perdeu
         C
Na indiferença... é pena que este amor não teve consciência
                              Dm
Dos sonhos que sonhamos em segredo

         A                                         Dm
Vá com Deus! Se o amor ainda está aqui... vá com Deus
                             Bbº
E tente sorrir por mim, amor meu
      A                                                     Dm
Se destino tá traçado... pra vivermos lado a lado, vá com Deus
         A                                         Dm
Vá com Deus! Se o amor ainda está aqui... vá com Deus
                             Bbº
E tente sorrir por mim, amor meu
      A                                                     Dm
Se destino tá traçado... pra vivermos lado a lado, vá com Deus

           Dm
E|-----0-1-3-5--6-5-3-0--3-5-6-5-3-6-5-3-5-3-1—-1-3-5-3-1-5-3-1-3-1-0--0h1-3-1-3-6-5-3---0h1--|
B|--3------------------------------------------3----------------------2----------------3-----3|
G|-2------------------------------------------------------------------------------------------|
D|0-------------------------------------------------------------------------------------------|
A|--------------------------------------------------------------------------------------------|
E|--------------------------------------------------------------------------------------------|

Despi minha alma... ao deitar!
                                    C
Nos braços de nós dois, pra ser um só

Você nada entendia... que tudo te esperava
                                  Dm
Nas horas mais sublimes... do meu eu.

         A                                         Dm
Vá com Deus! Se o amor ainda está aqui... vá com Deus
                             Bbº
E tente sorrir por mim, amor meu
      A                                                     Dm
Se destino tá traçado... pra vivermos lado a lado, vá com Deus
         A                                         Dm
Vá com Deus! Se o amor ainda está aqui... vá com Deus
                             Bbº
E tente sorrir por mim, amor meu
      A                                                     Dm
Se destino tá traçado... pra vivermos lado a lado, vá com Deus
Acordes para:
    Compositor: Roberta MirandaColaboración y revision:
    • Lucas Oliveira

    0 comentarios

      mostrar más comentarios

      ¿Conseguiste tocar?

      1tocaron2aún no

      ¡Graba un vídeo tocando Vá Com Deus y envianoslo!

      00:00 / 00:00
      outros vídeos desta música
      repetirqualidadeAutomático
      Outro vídeos desta música
        00:00 / 00:00
        OK