Cifra Club

Detalhes

Roberto Carlos

Cifrado: Principal (guitarra y guitarra eléctrica)
tono: A
[Intro] A  A7M  A  A7M  A#º

   A     A7M       A     A7M   A#º
E|-----0-------0-------0--------------------|
B|---2-------2-------2-------2--------------|
G|-2-----1---------2-----1-----0------------|
D|-----------------------------2------------|
A|-0-------0-------0-------0---1------------|
E|------------------------------------------|

[Primeira Parte]

   Bm7           E7
E|------------------------------------------|
B|-----3-------3-----3-------3--------------|
G|---2-------2-----1-------1----------------|
D|-4-----4-------2-----2--------------------|
A|-2-------2--------------------------------|
E|---------------0-------0------------------|

   A     A7M       A     A7M   A#º
E|-----0-------0-------0--------------------|
B|---2-------2-------2-------2--------------|
G|-2-----1---------2-----1-----0------------|
D|-----------------------------2------------|
A|-0-------0-------0-------0---1------------|
E|------------------------------------------|

   Bm7           E7
E|------------------------------------------|
B|-----3-------3-----3-------3--------------|
G|---2-------2-----1-------1----------------|
D|-4-----4-------2-----2--------------------|
A|-2-------2--------------------------------|
E|---------------0-------0------------------|

   A     A7M       A     A7M   A#º
E|-----0-------0-------0--------------------|
B|---2-------2-------2-------2--------------|
G|-2-----1---------2-----1-----0------------|
D|-----------------------------2------------|
A|-0-------0-------0-------0---1------------|
E|------------------------------------------|

   Bm7           E7
E|------------------------------------------|
B|-----3-------3-----3-------3--------------|
G|---2-------2-----1-------1----------------|
D|-4-----4-------2-----2--------------------|
A|-2-------2--------------------------------|
E|---------------0-------0------------------|

   A     A7M       A     A7M   A#º
E|-----0-------0-------0--------------------|
B|---2-------2-------2-------2--------------|
G|-2-----1---------2-----1-----0------------|
D|-----------------------------2------------|
A|-0-------0-------0-------0---1------------|
E|------------------------------------------|

   Bm7           G
E|------------------------------------------|
B|-----3-------3-----0-------0--------------|
G|---2-------2-----0-------0----------------|
D|-4-----4-------0-----0--------------------|
A|-2-------2--------------------------------|
E|---------------3-------3------------------|

   E             E7 
E|------------------------------------------|
B|-----0-------0-----0-------0--------------|
G|---1-------1-----1-------1----------------|
D|-2-----2-------0-----0--------------------|
A|------------------------------------------|
E|-0-------0-----0-------0------------------|

Bm7             E7
   Não adianta nem tentar
A  A7M  A  A7M  A#º
       Me  esquecer
Bm7               E7
   Durante muito tempo em sua vida
A  A7M     A        A7M  A#º
       Eu vou viver
Bm7                 E7
   Detalhes tão pequenos de nós dois
A A7M                    A                 A7M  A#º
      São coisas muito grandes pra esquecer
Bm7                     G
   E a toda hora vão estar presentes
   E         E7
Você vai ver

Bm7                 E7
   Se um outro cabeludo aparecer
A  A7M     A    A7M  A#º
       Na sua rua
Bm7                E7
   E isto lhe trouxer saudades minhas
A  A7M    A        A7M  A#º
       A culpa é sua
Bm7              E7
   O ronco barulhento do seu carro
A  A7M                      A               A7M  A#º
       A velha calça, desbotada ou coisa assim
Bm7               G       E      E7
   Imediatamente você vai   lembrar de mim

Bm7                            E7
   Eu sei que um outro deve estar falando
A  A7M     A       A7M  A#º
       Ao seu ouvido
Bm7              E7
   Palavras de amor como eu falei
A  A7M     A       A7M  A#º
       Mas eu duvido
Bm7                E7
   Duvido que ele tenha tanto amor
A          A7M           A          A7M  A#º
  E até os erros do meu português ruim
Bm7              G             E         E7
   E nessa hora você vai, lembrar de mim

Bm7                  E7
    E à noite, envolvida no silêncio
A  A7M  A          A7M  A#º
       Do seu quarto
Bm7             E7
   Antes de dormir você procura
A  A7M     A       A7M  A#º
       O meu retrato
Bm7                       E7
   Mas da moldura não sou eu quem lhe sorri
A         A7M            A            A7M  A#º
   Mas você vê o meu sorriso mesmo assim
Bm7                   G       E             E7
   E tudo isto vai fazer você   lembrar de mim

Bm7                     E7
   Se alguém tocar seu corpo como eu
A  A7M      A      A7M  A#º
       Não diga nada
Bm7                  E7
   Não vá dizer meu nome, sem querer
A  A7M       A       A7M  A#º
       À pessoa errada
Bm7               E7
   Pensando ter amor nesse momento
A  A7M         A         A7M         A#º
       Desesperada você tenta até o fim
Bm7               G
   E até nesse momento, você vai
E      E7
  Lembrar de mim

Bm7                    E7
   Eu sei que esses detalhes vão sumir
A  A7M      A       A7M  A#º
       Na longa estrada
Bm7                   E7
   Do tempo que transforma todo amor
A  A7M      A      A7M  A#º
       Em quase nada
Bm7          E7
   Mas quase    também é mais um detalhe
A       A7M            A            A7M  A#º
   Um grande amor não vai morrer assim

Bm7             G
   Por isso é que de vez em quando você vai
E  E7
      Lembrar de mim

Bm7             E7
   Não adianta nem tentar
A A7M     A    A7M  A#º     
      Me esquecer

( Bm7  E  A )
Composición de Erasmo Carlos / Roberto Carlos
Colaboración y revisión:
16.779 vistas
  • Simplificar cifrado
    • ½ Tono
    • A
    • Bb
    • B
    • C
    • Db
    • D
    • Eb
    • E
    • F
    • F#
    • G
    • Ab
  • Agregar a la lista

    0 comentarios

    Ver todos los comentarios
    00:00 / 00:00
    Outros vídeos desta música
    Repetir Calidad Automático
    Outros vídeos desta música
    00:00 / 00:00
    Automático
    Capítulos
    • Início
    • Acordes da introdução
    • Tocando a introdução
    • Ensinando o dedilhado da música
    • Acordes da primeira parte
    • Tocando a primeira parte
    • Acordes da música
    • Tocando trecho da música
    • Ensinando o dedilhado dos quatro primeiros versos
    • Ensinando o dedilhado dos dois últimos versos
    • Encerramento
    • Extras
    OK