Cifra Club

Detalles

Roberto Carlos

Cifrado: Principal (guitarra y guitarra eléctrica)
tono: A
INTRO:

   A      Amaj7        A      Amaj7
E|-------0-------0---|-------0---------|
B|----2-------2------|----2-------2----|
G|-2-------1---------|-2-------1-----0-|
D|-----------------2-|-----------------|
A|-0-----------------|-0-------------1-|
E|---------0---------|---------0-------|

Estos son los arpegios que se repiten en toda la canción. No olviden que al
final de cada arpegio va el intro, con excepción de la última línea

     Bm            E7
E|-----------------|-----------------| Este arpegio se repite dos veces
B|-3-----3-----3---|-0-----0-----0---| en las dos primeras líneas de cada
G|-----4-----4---4-|-----1-----1---1-| estrofa. Y al final va el arpegio
D|---4-----4-------|---0-----0-------| intro
A|-2-----2---------|-2-----2---------|
E|-----------------|-----------------|

   Bm               E7
E|---------2-------|---------0-------| Este arpegio se toca una vez en
B|-3-----3---3---3-|-0-----0---0---0-| la tercera línea de cada estrofa
G|-----4-------4---|-----1-------1---|
D|---4-------------|---0-------------|
A|-2---------------|-2---------------|
E|-----------------|-----------------|

  Bm                      G
E|---------2-------|-----|---------3-------| Esta en la ultima
B|-3-----3---3-----|-----|-------3---3---3-| línea de cada
G|-----4-------4---|-----|-----4-------4---| estrofa
D|---4-----------4-|-----|---5-------------|
A|-2---------------|-2-0-|-----------------|
E|-----------------|-----|-3---------------|
                    /
                   /
 Este bajeo es para pasar de la nota Bm a G



   Bm                E7                A     Amaj7   A     Amaj7
E|-----------------|-----------------|-----0-----0-|-----0--------|
B|-3-----3-----3---|-0-----0-----0---|---2-----2---|---2-----2----|
G|-----4-----4---4-|-----1-----1---1-|-2-----1-----|-2-----1----0-|
D|---4-----4-------|---0-----0-------|-------------|--------------|
A|-2-----2---------|-2-----2---------|-0-----------|-0----------1-|
E|-----------------|-----------------|-------0-----|-------0------|
    No ganas al intentar              el olvidarme

   Bm                E7                A     Amaj7   A     Amaj7
E|-----------------|-----------------|-----0-----0-|-----0--------|
B|-3-----3-----3---|-0-----0-----0---|---2-----2---|---2-----2----|
G|-----4-----4---4-|-----1-----1---1-|-2-----1-----|-2-----1----0-|
D|---4-----4-------|---0-----0-------|-------------|--------------|
A|-2-----2---------|-2-----2---------|-0-----------|-0----------1-|
E|-----------------|-----------------|-------0-----|-------0------|
      durante mucho tiempo en tu vida yo voy a vivir,

   Bm                E7                 A     Amaj7   A     Amaj7
E|---------2-------|---------0-------|------0-----0-|-----0--------|
B|-3-----3---3---3-|-0-----0---0---0-|----2-----2---|---2-----2----|
G|-----4-------4---|-----1-------1---|--2-----1-----|-2-----1----0-|
D|---4-------------|---0-------------|--------------|--------------|
A|-2---------------|-2---------------|--0-----------|-0----------1-|
E|-----------------|-----------------|--------0-----|-------0------|
     detalles tan pequeños de los dos, son cosas muy grandes para olvidar

  Bm                      G                 E7
E|---------2-------|-----|---------3-------|---------0-------|
B|-3-----3---3-----|-----|-------3---3---3-|-0-----0---0---0-|
G|-----4-------4---|-----|-----4-------4---|-----1-------1---|
D|---4-----------4-|-----|---5-------------|---0-------------|
A|-2---------------|-2-0-|-----------------|-2---------------|
E|-----------------|-----|-3---------------|-----------------|
    y a todo hora van estar presentes       ya lo verás.


Bm                 E7      A Amaj7     A   Amaj7
   Si otro hombre apareciera por tu ruta
Bm                E7              A Amaj7          A   Amaj7
   y esto te trajese recuerdos mios la culpa es tuya,
Bm                E7              A Amaj7         A        Amaj7
   el ruido enloquecedor de su auto será la causa obligada o algo así,
Bm                            G  E7
   por eso inmediatamente tú vas a acordarte de mí.



Bm                 E7                A  Amaj7   A   Amaj7
   Yo sé que otro debe estar hablando a tu oído
Bm             E7              A  Amaj7   A   Amaj7
   palabras de amor como yo te hablé más yo dudo,
Bm                 E7              A     Amaj7       A      Amaj7
   yo dudo que él tenga tanto amor y hasta la forma de mi decir
Bm                   G  E7
   y en esa hora tú vas a acordarte de mí.


Bm                 E7                A  Amaj7      A   Amaj7
   En la noche, envuelta en el silencio de tu cuarto
Bm            E7           A Amaj7    A   Amaj7
   antes de dormir tú buscas mi retrato
Bm                         E7               A
   pero aún cuando no quisieras verme sonreír
   Amaj7              A       Amaj7
   tú ves mi sonrisa lo mismo así
Bm                           G   E7
   y todo eso va a hacer que tú te acuerdes de mí.



Bm                   E7                A   Amaj7      A   Amaj7
   Si alguien tocase tu cuerpo como yo, no digas nada,
Bm             E7                   A Amaj7          A   Amaj7
   no vayas a decir mi nombre sin querer a la persona errada,
Bm               E7              A
   pensando en el amor de ese momento
   Amaj7              A       Amaj7
   desesperada vas a intentar llegar al fin
Bm                           G    E7
   y hasta en ese momento tú irás a acordarte de mí.



Bm                     E7        A  Amaj7   A   Amaj7
   Yo sé que mientras existamos, recordaremos
Bm                    E7           A  Amaj7  A   Amaj7
   y que el tiempo transforma todo amor en casi nada,
Bm                E7                   A
   más casi yo me olvido de un gran detalle
     Amaj7         A       Amaj7
   un gran amor no va a morir así
Bm                           G       E7
   por eso, de vez en cuando tú vas, vas a acordarte de mí.



Bm                 E7         A  Amaj7   A   Amaj7
   No ganas nada con intentar el olvidarme
Bm              E7            A
   durante mucho tiempo en tu vida
   Amaj7      A   Amaj7
   yo voy a vivir ...


   Amaj7
E|----0-----|
B|----2-----|
G|----1-----|
D|----2-----|
A|----0-----|
E|----0-----|
00:00 / 00:00
Otros videos de esta canción
Repetir
Otros videos de esta canción
Composición de Buddy McCluskey / Erasmo Carlos / Mary Mc Cluskey / Roberto Carlos
532 vistas
    • ½ Tono
    • A
    • Bb
    • B
    • C
    • Db
    • D
    • Eb
    • E
    • F
    • F#
    • G
    • Ab
  • Agregar a la lista

    0 comentarios

    Ver todos los comentarios

    ¿Lograste tocar?

    0 Tocaron 0 Aún no

    ¡Graba un video tocando Detalles y envíanoslo!

    00:00 / 00:00
    OK