Cifra Club

Eu Te Amo, Te Amo, Te Amo

Roberto Carlos

Cifrado: Principal (guitarra y guitarra eléctrica)
tono: A
[Primeira Parte]

 F                 C       
Tanto tempo longe de você
 Bb                   F
Quero ao menos lhe falar
                 C         Bb  
A distância não vai impedir
                       F
Meu amor de lhe encontrar
 Bbm              Fm        Bbm
Cartas já não adiantam mais
                   Fm
Quero ouvir a sua voz
 Bbm              Fm     
Vou telefonar dizendo que
                   Db
Eu estou quase morrendo
                 C
De saudade de você

E|---------------------------------|
B|---------------------------------|
G|---------------------------------|
D|----14-15-17-17-15-14------------|
A|-15-------------------15---------|
E|---------------------------------|

[Refrão]

F             Bb          F        C
   Eu te amo, eu te amo, eu te amo

[Segunda Parte]

F                      C 
Eu não sei por quanto tempo
    Bb                  F
Eu tenho ainda que esperar
                   C        Bb 
Quantas vezes eu até chorei
 Bb                 F  Bbm
Pois não pude suportar
                Fm  
Para mim não adianta
 Bbm               Fm  Bbm
Tanta coisa sem você
                 Fm   
E então me desespero
       Ab              Db
Por favor meu bem eu quero
                  C
Sem demora lhe falar

E|---------------------------------|
B|---------------------------------|
G|---------------------------------|
D|----14-15-16-16-15\14------------|
A|-15-------------------15---------|
E|---------------------------------|

[Refrão]

F         Bb          F        F7
Eu te amo, eu te amo, eu te amo

[Terceira Parte]

 Bbm           Eb
Mas o dia que eu puder
           Ab
Lhe encontrar
             Fm       
Eu quero contar o quanto
    Bbm              Db
Sofri por todo esse tempo
                   C
Que eu quis lhe falar

E|---------------------------------|
B|---------------------------------|
G|---------------------------------|
D|----14-15-16-16-15\14------------|
A|-15-------------------15---------|
E|---------------------------------|

[Refrão]

F         Bb          F       C
Eu te amo, eu te amo, eu te amo

[Solo]  F  C  Bb  F  C  Bb  F  Bbm

[Ponte]

                    Fm     Bbm
Cartas já não adiantam mais
                   Fm  Bbm
Quero ouvir a sua voz
                 Fm  
Vou telefonar dizendo
                       Db
Que eu estou quase morrendo
                 C
De saudade de você

E|---------------------------------|
B|---------------------------------|
G|---------------------------------|
D|----14-15-16-16-15\14------------|
A|-15-------------------15---------|
E|---------------------------------|

[Refrão]

F         Bb          F       F7
Eu te amo, eu te amo, eu te amo

[Interlúdio]

 Bbm           Eb                Ab
Mas o dia que eu puder te encontrar
             Fm              Bbm 
Eu quero contar o quanto sofri
               Db
Por todo esse tempo
                   C
Que eu quis lhe falar

E|---------------------------------|
B|---------------------------------|
G|---------------------------------|
D|----14-15-16-16-15\14------------|
A|-15-------------------15---------|
E|---------------------------------|

[Refrão]

F         Bb          F        C
Eu te amo, eu te amo, eu te amo
F         Bb          F        C
Eu te amo, eu te amo, eu te amo

E|---------------------------------|
B|---------------------------------|
G|---------------------------------|
D|----14-15-16-16-15\14------------|
A|-15-------------------15---------|
E|---------------------------------|

( F )
Composición de Erasmo Carlos / Roberto Carlos
3.152 vistas
    • ½ Tono
    • A
    • Bb
    • B
    • C
    • Db
    • D
    • Eb
    • E
    • F
    • F#
    • G
    • Ab
  • Agregar a la lista

    0 comentarios

    Ver todos los comentarios

    ¿Lograste tocar?

    18 Tocaron 11 Aún no

    ¡Graba un video tocando Eu Te Amo, Te Amo, Te Amo y envíanoslo!

    00:00 / 00:00
    Outros vídeos desta música
    Repetir Calidad Automático
    Outros vídeos desta música
    00:00 / 00:00
    Automático
    OK