Cifra Club

Show Me Love Simplificada

Robin Schulz

Cifrado: Principal (guitarra y guitarra eléctrica)
Acompaña nuestras novedades de Cifra Club en español.
¡Sigue nuestro perfil en Instagram!
tono: D
Intro: 1x

E|---------------------------------------------------------------------------|
B|---------------------------------------------------------------------------|
G|---7---7---7---7---7---7---2---2---4---4---4---4---4---4---2---2-----------|
D|---------------------------------------------------------------------------|
A|---------------------------------------------------------------------------|
E|-7---7---7---7---7---7---2---2---3---3---3---3---3---3---2---2-------------|

E|---------------------------------------------------------------------------|
B|---------------------------------------------------------------------------|
G|---6---6---6---6---6---6---2---2---4---4---4---4---4---4---2---2-----------|
D|---------------------------------------------------------------------------|
A|---------------------------------------------------------------------------|
E|-5---5---5---5---5---5---2---2---3---3---3---3---3---3---2---2-------------|

[Verse 1]
G
There's a notebook on the table
         Bm                          A                              G
You can take it to the store so you won't forget the groceries anymore
 G                                     Bm
There's a rifle in the cabinet that I used to fight a war
             A                                G
But to this day, I don't know what I wass fighting for
I'm fighting for


[Chorus]
G
Will you show me love as we get older
          Bm
And I'm falling at your feet
      A
After 30 years of service
     G
And one to fit our need
G
Show me love as we grow colder
         Bm
Let our love provide the heat
      A
That our older bones are missing
         G
But our heart's will never meet

[Verse 2]
G                                     Bm
There's a blanket on the sofa that I used to keep you warm
        A                                 G
When I find you fast asleep at half past four
G                                       Bm
There's a record we keep turning that reminds us of our youth
             A                             G
But there's still nothing as beautiful as you

[Chorus]
G
Will you show me love as we get older
          Bm
And I'm falling at your feet
      A
After 30 years of service
     G
And one to fit our need
G
Show me love as we grow colder
         Bm
Let our love provide the heat
      A
That our older bones are missing
         G
But our heart's will never meet

[Post-Chorus]
G
As we grow colder
Bm
Love provide the heat
A
Older bones are missing
G
Hearts that never meet

[Bridge]
 G                               Bm
Because your hand belongs in my hand
                 A                 G
Belongs in your hand, belongs with me, with me
   G                                   Bm
(Blanket on the sofa that I used to keep you warm
     A                                   G
There's a record we keep turning that I use to turn you on)

[Chorus]
G
Will you show me love as we get older
          Bm
And I'm falling at your feet
      A
After 30 years of service
     G
And one to fit our need
G
Show me love as we grow colder
         Bm
Let our love provide the heat
      A
That our older bones are missing
         G
But our heart's will never meet
Compositor não encontrado.
Colaboración y revisión:
  • Victor Tavares
59 vistas
    • ½ Tono
    • A
    • Bb
    • B
    • C
    • Db
    • D
    • Eb
    • E
    • F
    • F#
    • G
    • Ab
  • Agregar a la lista

    0 comentarios

    Ver todos los comentarios

    ¿Lograste tocar?

    1 Tocaron 0 Aún no

    ¡Graba un video tocando Show Me Love Simplificada y envíanoslo!

    00:00 / 00:00
    Outros vídeos desta música
    Repetir Calidad Automático
    Outros vídeos desta música
    00:00 / 00:00
    Automático
    OK