Cifra Club

Lost Without You

Robin Thicke

Tablatura: Principal (guitarra)
Tom: C
Fingerplucked

E|---------------------------------------------------------------:
B|66-6-6--66-6-6--66-6-6--66-6-6--55-5-5--55-5-5--55-5-5---------:
G|55-5-5--55-5-5--44-4-4--44-4-4--44-4-4--44-4-4--55-5-5--77-8-9-:
D|--------------------------------------------------------88-9-10:
A|55-5-5--55-5-5--55-5-5--55-5-5--33-3-3--33-3-3--00-0-0--66-7-8-:
E|---------------------------------------------------------------:

INDIVIDUAL SOLO BITS :: Not In Playing Order

E|------------------------::---------------------------::-------------::
B|12-13-10-12-8-10-6-8-5--::10h12h13p12-10-8-6-5-3-1---::8-6-5-3-5p3--::
G|------------------------::---------------------------::-------------::
D|------------------------::---------------------------::-------------::
A|------------------------::---------------------------::-------------::
E|------------------------::---------------------------::-------------::

E|---------------::---------------::-------------------|
B|1-3h5p3-1h3h5--::8-8--6-5-3-5h65::-1-3-5-3-1-3-5h6p5-|
G|---------------::---------------::0------------------|
D|---------------::---------------::-------------------|
A|---------------::---------------::-------------------|
E|---------------::---------------::-------------------|
reproducciones 195
Acordes para:
    Composição: Robin Thicke Colaboración y revision:
    • Leonardo Prevedello

    0 comentarios

    mostrar más comentarios

    ¿Conseguiste tocar?

    0 tocaron 0 aún no

    ¡Graba un vídeo tocando Lost Without You y envianoslo!

    00:00 / 00:00
    outros vídeos desta música
    repetir qualidade Automático
    Outros vídeos desta música
    00:00 / 00:00
    Automático
    OK