Cifra Club

Teach You A Lesson

Robin Thicke

Tablatura: Principal (guitarra)
Tom: D
this is my first tab so let me know what you think. there are a few variations in timing 
the song, but jus listen for them.  im still missing the solo, if anyone can send it to 
 thanks!

-drew

intro x3
e|-----------------------------------------------------------------|
B|-7s5--3-5-----5-------5-5----------5--------7---7---7------------|
G|------------3---3-----3-3--------3---3-------7---7---7-----------|
D|----------------------------------------------7---6---5----------|
A|----------4-------4---4-4------4-------4-------------------------|
E|-----------------------------------------------------------------|

e|-----------------------------------------------------------------|
B|-7s5--3-5-----5-------5-5----------------------------------------|
G|------------3---3-----3-3----------------------------------------|
D|-----------------------------------------------------------------|
A|----------4-------4---4-4----------------------------------------|
E|-----------------------------------------------------------------|


verse/chorus


e|-----------------------------------------------------------------|
B|--------------5-------5-5----------5-------7---7---7-------------|
G|------------3---3-----3-3--------3---3------7---7---7------------|
D|---------------------------------------------7---6---5-----------|
A|----------4-------4---4-4------4-------4-------------------------|
E|-----------------------------------------------------------------|


e|-----------------------------------------------------------------|
B|-7s5--3-5-----5-------5-5----------5--------7---7---7------------|
G|------------3---3-----3-3--------3---3-------7---7---7-----------|
D|----------------------------------------------7---6---5----------|
A|----------4-------4---4-4------4-------4-------------------------|
E|-----------------------------------------------------------------|


e|-----------------------------------------------------------------|
B|-7s5--3-5-----5-------5-5----------------------------------------|
G|------------3---3-----3-3----------------------------------------|
D|-----------------------------------------------------------------|
A|----------4-------4---4-4----------------------------------------|
E|-----------------------------------------------------------------|
reproducciones 24
Acordes para:

    0 comentarios

    mostrar más comentarios

    ¿Conseguiste tocar?

    0 tocaron 0 aún no

    ¡Graba un vídeo tocando Teach You A Lesson y envianoslo!

    00:00 / 00:00
    outros vídeos desta música
    repetir qualidade Automático
    Outros vídeos desta música
    00:00 / 00:00
    Automático
    OK