Cifra Club

Out Of Control

Rocket From The Crypt

Cifrado: Principal (guitarra y guitarra eléctrica)
Selo Cifra Club: esta cifra foi revisada para atender aos critérios oficiais da nossa Equipe de Qualidade.
tono: C
Intro: (muffle the E)

   E         A     G A
E|-------------------------|
B|-------------------------|
G|-------------2-2-2---2---|
D|-------------2-2-2---2---|
A|---2-2-2-2---0-0-0---0---|
E|----0-0-0-0--------3-----| x2


Verse:


"I'm a burnin village..."
   E                     A     G A
E|-----------------------------------------|
B|-----------------------------------------|
G|-------------------------2-2-2---2-------|
D|---2-2-2-2-2-2-2-2-------2-2-2---2-------|
A|---2-2-2-2-2-2-2-2-------0-0-0---0-------|
E|---0-0-0-0-0-0-0-0-------------3---------| x4

"my purple robes..."
   C                       E   D#  D   C#
E|--------------------------------------------|
B|--------------------------------------------|
G|---5-----------------------9---8---7---6----|
D|---5-----------------------9---8---7---6----|
A|---3-----------------------7---6---5---4----|
E|--------------------------------------------|


"burn more bridges..."
   C              G               B
E|-----------------------------------------|
B|-----------------------------------------|
G|---5------------------------------4------|
D|---5--------------5---------------4------|
A|---3--------------5---------------2------|
E|------------------3----------------------|

Chorus:

"my hell.."
   E   A   D   G   C   A   D   B
E|-----------------------------------------|
B|-----------------------------------------|
G|---9-------7-------5-------7-------------|
D|---9---7---7---5---5---7---7---7---------|
A|---7---7---5---5---3---7---5---7---------|
E|-------5-------3-------5-------9---------|
Otros videos de esta canción
    1 exhibiciones
      • ½ Tono
      • A
      • Bb
      • B
      • C
      • Db
      • D
      • Eb
      • E
      • F
      • F#
      • G
      • Ab
    • Agregar a la lista

    Afinação da cifra

    Afinador online

      Ops (: Contenido disponible solo en portugués.
      OK