Cifra Club

Imposible

Rocksteddy

Cifrado: Principal (guitarra y guitarra eléctrica)
tono: G
Tabbed by: kiel suarez
Length: 7:12
Album: Tsubtsatagilidakeyn
Tuning: Standard
Note: simplified version po ito...kung gusto niyong palitan ng mas mahirap ayos lang :)

Intro:

                     D9
E|-----------------------------------------------|
B|--2-1----------------2-1-----------------------|
G|--1-1-1--1--0--1--1--1-1-1--1--0--1------------|
D|--0-0-0-0--0--0--0---0-0-0-0--0--0-------------|
A|-----------------------------------------------|
E|-----------------------------------------------|--> 2x


Verse I

                     D9
E|-----------------------------------------------|
B|--2-1----------------2-1-----------------------|
G|--1-1-1--1--0--1--1--1-1-1--1--0--1------------|
D|--0-0-0-0--0--0--0---0-0-0-0--0--0-------------|
A|-----------------------------------------------|
E|-----------------------------------------------|--> 2x

Kanina pa naghihintay
Malayo na ang nalakabay

     C9       G
E|-----3---3---3---|
B|----3-3-3---3-3--|
G|---0-0-0---0-0---|
D|-----------------|
A|--3---3----------|
E|----------5------|

Nitong bubblegum sa isipan...

Ipluck nalang po...madali lang naman e :)

D9              G
Teka muna ligo muna 'ko
D9                    G
Mabilis lang to Di na ko magsasabon
D9              G
Teka muna kain muna ko
D9                    G
Sandali lang to di na ko maguulam
Bm           C9 [pastrum na ung dating]
Ng sabaw sa daan

Chorus: [strumming na po]

    D        G  
O dalhin mo naman ako
    Bm       C9
Sa dulo ng mundo
    D            G           Bm-C9          
At dalhin mo na rin ang puso ko
    D         G
O dalhin mo naman ako
Bm           C9
Sa dulo ng mundo
       D         G         Bm       C9
Dahil dito sa pag-ibig ay walang imposible

Interlude...

E|-----------10-/-11-10------------------10-/-11-10-11-------|
B|--7-8-/-10------------10-8-7-8-/-10-10---------------10----|
G|-----------------------------------------------------------|
D|-----------------------------------------------------------|
A|-----------------------------------------------------------|
E|-----------------------------------------------------------|

E|-----------11-10-------------------------------------------|
B|--7-8-/-10-------10-8-7-/-8-3h5------------------10--------|
G|-----------------------------------------------------------|
D|-----------------------------------------------------------|
A|-----------------------------------------------------------|
E|-----------------------------------------------------------|



Verse II [parehas lang po ung chords sa Verse I]

Teka muna hinay hinay lang
At nahihilo na
Pwede ba tayong humiga
Steady muna
Sandali lang po hintayin mo ko                  
Pwede ba tayong maglakad ng sabay sa daan

Repeat chorus 


Repeat Chorus...

---End---

comments? email nio po ako...*
sana po magustuhan niyo...pakirate nalang po :p
sana maaprove :)

00:00 / 00:00
Otros videos de esta canción
Repetir
Otros videos de esta canción
Compositor no encontrado.
27 vistas
    • ½ Tono
    • A
    • Bb
    • B
    • C
    • Db
    • D
    • Eb
    • E
    • F
    • F#
    • G
    • Ab
  • Agregar a la lista

    0 comentarios

    Ver todos los comentarios

    ¿Lograste tocar?

    0 Tocaron 0 Aún no

    ¡Graba un video tocando Imposible y envíanoslo!

    00:00 / 00:00
    OK