Cifra Club

Magpakailanman Solo

Rocksteddy

Cifrado: Principal (guitarra y guitarra eléctrica)
tono: E
Hi im John Paulo Garcia of Batangas City....s SBC po ako napasok, 09166705945 for comments an advice
sana irate nyo ng *..check out my other tabs..just look at my profile...ty po sa inyo...
to my bandm8's RM,Aaron,Venson and Jarrod..hehe maganda tong kantang eto!!! /gg

e|-------------------------------------------------------------------------------|
B|-/17 17-15-14-15-15h17-17~--15h17-15-14-12-------------------------------------|
G|------------------------------------------14-14/16~----------------------------|
D|---------------------------------------------------14-14-14/16-14~-------------|
A|-------------------------------------------------------------------------------|
E|-------------------------------------------------------------------------------|

e|------------------------------------------------------------------/17 17~------|
B|---------------------------------------------------13h15/17-15-17--------------|
G|-------------------------------14-11--11-14-12h14/16---------------------------|
D|-12h14-12--------11~------11-12-----12-----------------------------------------|
A|---------12-12/14--------------------------------------------------------------|
E|-------------------------------------------------------------------------------|

00:00 / 00:00
Otros videos de esta canción
Repetir
Otros videos de esta canción
Compositor no encontrado.
11 vistas
    • ½ Tono
    • A
    • Bb
    • B
    • C
    • Db
    • D
    • Eb
    • E
    • F
    • F#
    • G
    • Ab
  • Agregar a la lista

    0 comentarios

    Ver todos los comentarios

    ¿Lograste tocar?

    0 Tocaron 0 Aún no

    ¡Graba un video tocando Magpakailanman Solo y envíanoslo!

    00:00 / 00:00
    OK