Cifra Club

No Touch Intro

Rocksteddy

Cifrado: Principal (guitarra y guitarra eléctrica)
tono: G
may first tab
-I'm Kian Llanda from Bayombong Nueva Vizcaya!

after po nung tappings..

play this 2 times
e|------------------------------------------|
g|------------------------------------------|
d|------------------------------------------|
b|---------------4-7-4-----4----------------|
a|---------4-5-7-------7-7---7--------------|
E|-----5-5---------------------5------------|

then..2 times ulit
dead na dead talaga ako..sa mga pakembot kembot mo
e|------------------------------------------|
g|------------------------------------------|
d|------------------------------------------|
b|---------------4-7-4-----4----------------|
a|---------4-5-7-------7-7---7--------------|
E|-----5-5---------------------5------------|

tapos..
kapag ika'y ngumingiti..ako'y medjo nakikiliti
e|------------------------------------------|
g|------------------------------------------|
d|---------------4-7-4-----4----------------|
b|---------4-5-7-------7-7---7--------------|
a|-----5-5----------------------------------|
E|-----------------------------5------------|

e|------------------------------------------|
g|------------------------------------------|
d|------------------------------------------|
b|---------------4-7-4-----4----------------|
a|---------4-5-7-------7-7---7--------------|
E|-----5-5---------------------5------------|

...
kailangan ko ang iyong pisngi..
e|------------------------------------------|
g|------------------------------------------|
d|----77777777------44444444----------------|
b|----77777777------44444444----------------|
a|----55555555------22222222----------------|
E|------------------------------------------|

kailangan ko ang iyong labi..
e|------------------------------------------|
g|------------------------------------------|
d|----77777777------44444444----------------|
b|----77777777------44444444----------------|
a|----55555555------22222222----------------|
E|------------------------------------------|

kalian kaya kita maiuuwi..
e|------------------------------------------|
g|------------------------------------------|
d|----77777777------9999-7777---------------|
b|----77777777------9999-7777---------------|
a|----55555555------7777-5555---------------|
E|------------------------------------------|

sige na sige na! 
e|------------------------------------------|
g|------------------------------------------|
d|------------------------------------------|
b|---------------4-7-4-----4----------------|
a|---------4-5-7-------7-7---7--------------|
E|-----5-5---------------------5------------|

sige na sige na!
e|------------------------------------------|
g|------------------------------------------|
d|------------------------------------------|
b|---------------4-7-4-----4----------------|
a|---------4-5-7-------7-7---7--------------|
E|-----5-5---------------------5------------|

.....
noon pa man ikaw na talaga
e|------------------------------------------|
g|------------------------------------------|
d|------------------------------------------|
b|---------------4-7-4-----4----------------|
a|---------4-5-7-------7-7---7--------------|
E|-----5-5---------------------5------------|

pangarap ko sa tuwi-tuwina
e|------------------------------------------|
g|------------------------------------------|
d|------------------------------------------|
b|---------------4-7-4-----4----------------|
a|---------4-5-7-------7-7---7--------------|
E|-----5-5---------------------5------------|

kailan kaya kita ma-iiskor
e|------------------------------------------|
g|------------------------------------------|
d|---------------4-7-4-----4----------------|
b|---------4-5-7-------7-7---7--------------|
a|-----5-5----------------------------------|
E|-----------------------------5------------|

kailan kaya kita ma-aarbor
e|------------------------------------------|
g|------------------------------------------|
d|------------------------------------------|
b|---------------4-7-4-----4----------------|
a|---------4-5-7-------7-7---7--------------|
E|-----5-5---------------------5------------|

e|------------------------------------------|
g|------------------------------------------|
d|----77777777------44444444----------------|
b|----77777777------44444444----------------|
a|----55555555------22222222----------------|
E|------------------------------------------|

kailangan ko ang iyong labi..
e|------------------------------------------|
g|------------------------------------------|
d|----77777777------44444444----------------|
b|----77777777------44444444----------------|
a|----55555555------22222222----------------|
E|------------------------------------------|

kalian kaya kita maiuuwi..
e|------------------------------------------|
g|------------------------------------------|
d|----77777777------9999-7777---------------|
b|----77777777------9999-7777---------------|
a|----55555555------7777-5555---------------|
E|------------------------------------------|

sige na sige na! 
e|------------------------------------------|
g|------------------------------------------|
d|------------------------------------------|
b|---------------4-7-4-----4----------------|
a|---------4-5-7-------7-7---7--------------|
E|-----5-5---------------------5------------|

sige na sige na!
e|------------------------------------------|
g|------------------------------------------|
d|------------------------------------------|
b|---------------4-7-4-----4----------------|
a|---------4-5-7-------7-7---7--------------|
E|-----5-5---------------------5------------|
...............
dito na ung adlib * ko pa nakakapa!



tabbed by: Kian C. Llanda      email: *
thanks to the following:
Jan Paul Sicat
Ralph Saniatan
Venzon Jacinto
Mark Brosas
Makoy
at sa lahat ng nagdodota sa arkinet!
00:00 / 00:00
Otros videos de esta canción
Repetir
Otros videos de esta canción
Compositor no encontrado.
7 vistas
    • ½ Tono
    • A
    • Bb
    • B
    • C
    • Db
    • D
    • Eb
    • E
    • F
    • F#
    • G
    • Ab
  • Agregar a la lista

    0 comentarios

    Ver todos los comentarios

    ¿Lograste tocar?

    0 Tocaron 0 Aún no

    ¡Graba un video tocando No Touch Intro y envíanoslo!

    00:00 / 00:00
    OK