Cifra Club

Smile At Me

Rocksteddy

Cifrado: Principal (guitarra y guitarra eléctrica)
tono: A
Smile at Me



|---------------------------------------------------|
|   '&'                                             |
|    #                                              |
|    #     Tabbed by Don Michael Acelar De Leon     |
|   _#_    Eighteen Na Ako!!!                       |
|  ( # )                                            |
|  / O \   *                  |
| ( === )                                           |
|  `---'                                            |
|---------------------------------------------------|


Guitar 0--Steel String Acoustic
Guitar 1--Rhythm, Crank Distortion
Guitar 2--Lead, "Juven Pelingon" tone (very sweet distortion, slight phaser and reverb)

Intro

Guitar 0

|-3--0--0--0--|
|-3--3--3--3--|
|-0--2--2--0--|
|-0--0--x--2--|*volume swell, Guitar 1*
|-2--x--2--3--|
|-3--2--------|

Guitar 1--Do Intro Chords

Guitar 2

|----------------------------------------------------------------------|
|--------------------------12~~~-------------------------15-13s15~~~~/-|
|-----12-12~~~11--12-12s14-------14-12-14s16-14h16~~~-16---------------|
|-/12------------------------------------------------------------------|
|----------------------------------------------------------------------|
|----------------------------------------------------------------------|

Verse

"Funny how I fell for you..."

Guitar 1

|-----------------------------|
|-----------------------------|
|-----------------------------|
|-----------------------------|*palm muted*
|---------------2-(7x)-3-(9x)-|
|-3-(7x)-2-(9x)---------------|

"There's a shine..."

Guitar 2

|-----------------------------|
|-----------------------------|
|-------------------5-5xx-----|
|-5-5xx-4-4xx-2-2xx-5-5xx-----|*palm muted*
|-5-5xx-4-4xx-2-2xx-3-3xx-----|
|-3-3xx-2-2xx-0-0xx-----------|

Prechorus

"Cause you knock me off my feet..."

|-0~--0~--0---0~--|
|-1~--3~--3~--3~--|
|-0~--2~--0~--2~--|*fingerpick or strum as necessary* (repeat)
|-2~--x~--2~--0~--|
|-0~--2~--3~------|
|-----------------|

Chorus

"You light my way..."

Guitar 1

|-0--0--0--0--|
|-0--0--0--0--|
|-1--4--4--2--|
|-2--2--4--2--|*repeat*
|-2--4--2--0--|
|-0--0--0--0--|

Guitar 2

|-12--9---12--9---11--|
|-12--10--10--10--12--|
|-9---9---9---9---9---|
|-9---9---11--9---9---|*fingerpick during chorus progression*
|---------------------|
|---------------------|

Guitar Solo

|------------------------------------------------------------------------------------|
|--------------------------12~~~-------------------------15-13s15-15-----------------|
|-----12-12~~~11--12-12s14-------14-12-14s16-14h16~~~-16-------------17p16-----------|
|-/12----------------------------------------------------------------------17/12~~~--|
|------------------------------------------------------------------------------------|
|------------------------------------------------------------------------------------|

|-------15~~-15~~-15-17-15--17s19-17s19~~~-19-17-15----------------|
|-15h17---------------------------------------------17~--17-15-----|
|--------------------------------------------------------------16/-|
|------------------------------------------------------------------|
|------------------------------------------------------------------|

|-------------------------------------------------------------------|
|------------12h13h15~~---12h13p12-------------------------15~~~///-|
|-------12h4-----------------------14-12----------------------------|
|-12h14----------------------------------14-12----------------------|
|----------------------------------------------15-14-12-------------|
|-------------------------------------------------------15~~--------|

Verse 2--Do Verse Chords

Prechorus

Chorus

End in E

My warmest thanks to...


Mayor Jejomar Binay and the City Government of Makati
Miss Tarra Quismundo and the Philippine Daily Inquirer
Mama, Family and Friends
Bandmates Jo Margarette Remollo and Abraham Jezreel Pincaro of Heartburn
Bandmates Richard Cruz and Bernard Mendoza of Lunchbox
Ateneo De Manila University (Block A4 Rocks!)
Herson Colico Beltran (Our Music lives on, dear brother and friend!)

Dedicated to my loyal photographer and girlfriend(!)
Therese Angeli Ruivivar Co...love yah!!! hahaha..kelan jamming natin?


Copyright® 2006 by Don Michael Acelar De Leon. All Rights Reserved.
00:00 / 00:00
Otros videos de esta canción
Repetir
Otros videos de esta canción
Composición de Rocksteddy
9 vistas
    • ½ Tono
    • A
    • Bb
    • B
    • C
    • Db
    • D
    • Eb
    • E
    • F
    • F#
    • G
    • Ab
  • Agregar a la lista

    0 comentarios

    Ver todos los comentarios

    ¿Lograste tocar?

    0 Tocaron 0 Aún no

    ¡Graba un video tocando Smile At Me y envíanoslo!

    00:00 / 00:00
    OK