Cifra Club

Have You Ever Seen The Rain

Rod Stewart

Cifrado: Principal (guitarra y guitarra eléctrica)
tono: B (con acordes en la forma de C) Afinación: Eb Ab Db Gb Bb Eb
             Am   F  C           G  C                   C
E|-----------------------------|-------------------|
B|-----------------------------|-------------------|
G|----------------2-0----------|-------------------|
D|--------------------2-2-0----|-------------------|
A|--------------------------3--|---3-2-0-----------|
E|-----------------------------|---------3-3-0-----|

C
 Someone told me long ago
There's a calm before the storm
  G                           C
I know, it's been coming for some time
When it's over so we say
It'll rain a sunny day
  G                       C      C
I know, shinin' down like water

F           G              C    G/B      Am   G
  I wanna know, have you ever seen the rain
F           G              C    G/B      Am   G
  I wanna know, have you ever seen the rain
F        G               C
  Comin' down on a sunny day

G|-----------------|
D|-----------------|
A|---3-2-0------3--|
E|----------3-3----|

    C
Yesterday and days before
Sun is cold and rain is hot
  G                       C
I know,it's been that way for all my time

G|-----------------|
D|-----------------|
A|---3-2-0------3--|
E|----------3-3----|

C
Till forever on it goes
Through the circle fast and slow
  G                        C        C7
I know, and it can't stop I wonder

F           G              C     G/B      Am   G
  I wanna know, have you ever seen the rain
F           G              C     G/B      Am   G
  I wanna know, have you ever seen the rain
F        G               C                         F
  Comin' down on a sunny day

G|-----------------|
D|-----------------|
A|---3-2-0------3--|
E|----------3-3----|

F           G              C    G/B    Am     Am/G
  I wanna know, have you ever seen the rain
F           G              C    G/B   Am       Am/G
  I wanna know, have you ever seen the rain
F        G               C
  Comin' down on a sunny day

                             C
G|---------2-0-----0-------|
D|-------------2-2---------|
A|-------------------3-----|
E|-------------------------|
00:00 / 00:00
Otros videos de esta canción
Repetir
Otros videos de esta canción
Composición de John Fogerty
Colaboración y revisión:
8.666 vistas
    • ½ Tono
    • A
    • Bb
    • B
    • C
    • Db
    • D
    • Eb
    • E
    • F
    • F#
    • G
    • Ab
  • Agregar a la lista

    0 comentarios

    Ver todos los comentarios

    ¿Lograste tocar?

    21 Tocaron 2 Aún no

    ¡Graba un video tocando Have You Ever Seen The Rain y envíanoslo!

    00:00 / 00:00
    OK