Enviar cifraEntrar

Isaias 9

Rodolfo Abrantes

Acordes: Principal
reproducciones 650
Tono: D
Intro 2x:  D  A  Bm

D   A/C#     Bm
Um menino nasceu
        D    A/C#     Bm
Como um filho se nos deu
                D
Ele é o próprio Deus
  A/C#     Bm
E vive em mim
                D
Debaixo de suas asas
   A/C#     Bm
Eu me escondi

G        Bm   Em7     Bm
E o seu nome é maravilhoso
G         Bm           A/C#
Glória ao príncipe da paz

Refrão:
   Bm               F#m
O céu começa a se abrir
       Bm               G
Toda a terra se dobrou a Ti
  D/F#            F#m
Cristo, rei dos reis
             G
Veio nos buscar

 Bm               F#m
Leva-nos em tuas mãos
      Bm             G
Pelas portas da cidade
D/F#           F#m
Na nova Jerusalém
                 G
Tua noiva vai entrar.

Ponte: ( Bm  D  F#m  A (Bm  D  A/C#) )



E|-------------------------------------------------------------------------|
B|-------------------------------------------------------------------------|
G|---------------------11----------------------------------------11/13/9---|
D|---9p11--------------11---9p11-9----9-11-9----9--------------------------|
A|--------9--9p11------------------11--------11---11----12-11-9------------|
E|----------------9-X------------------------------------------------------|




D   A/C#      Bm
Um menino nasceu
        D    A/C#     Bm
Como um filho se nos deu
                D
Ele é o próprio Deus
  A/C#      Bm
E vive em mim
                D
Debaixo de suas asas
   A/C#     Bm
Eu me escondi,

G        Bm    Em     Bm
E o seu nome é maravilhoso
G         Bm           A/C#
Glória ao príncipe da paz.

Refrão 3x:
   Bm               F#m
O céu começa a se abrir
       Bm               G
Toda a terra se dobrou a Ti
  D/F#            F#m
Cristo, rei dos reis
             G
Veio nos buscar


Solo Final:



E|--------------------------------------------------|
B|--------------------------------------------------|
G|--------------------------------------------------|
D|-11-9-6-11---11-9-6-11-6---11-9-6-11-6-4~--6-9----|  4x
A|--------------------------------------------------|
E|--------------------------------------------------|


   Final: B
E|-----------|
B|-----------|
G|-----------|
D|-----9~----|
A|-----9~----|
E|-----7~----|
  • 1
  • 2
  • 3
  • 4
  • 5
  • 6
  • 7
  • 8
  • 9
  • 10
  • 11
  • 12

    0 comentarios

      mostrar mas comentarios

      ¿Conseguiste tocar?

      84tocaron1aún no

      ¡Grave un vídeo tocando Isaias 9 y envie para nosotros!

      00:00 / 00:00
      outros vídeos desta música
      repetirqualidadeautomática
      • automática
      Outro vídeos desta música
        00:00 / 00:00
        automática
        • automática
        1 versión de Armónicareproduccionescontribuciones
        1 versión de Partiturasformatodownloadscontribución
        cerrarplay/pause subir/bajar velocidad
          Acordes para:guitarra
          acordes
          cerrar
          OK